Acordes de Guitarra » C »Café Tacuba » El hombre impasible (Tab)

El hombre impasible
Café Tacuba

  • Tablatura
       Am     Dm     F     C     Fmaj7    Gm    D#
    |---5------5-----1-----1------0-------3-----6--|
    |---5------6-----1-----3------1-------3-----8--|
    |---5------7-----2-----3------2-------3-----8--|
    |---7------7-----3-----3------3-------5-----8--|
    |---7------5-----3-----1------3-------5-----6--|
    |---5------5-----1-----1------0-------3-----6--|
    
    
    El siguiente es el RIFF 1
    
    |------------|-----------|-----------------|------------|
    |------------|-----------|-----------------|------------|
    |------------|-----------|-----------------|------------|
    |----5----8--|-7----5----|------5--8--8/10-|-8--8----8--|
    |-5----------|-----------|---5-------------|------------|
    |------------|-----------|-----------------|------------|
    
    
    |--------------|--------------|--------------|
    
  • +
    ¡Colabora con nosotros!
    Envíanos tu versión de esta canción

Letra de El hombre impasible
El siguiente es el RIFF 1
Ahora sí...
EL HOMBRE IMPASIBLE
Si puedes cantar
y contar mil y una historias
Puedes practicar
A inventarme mis memorias
Soy el imposible hombre impasible
Venir a gritar
y saltar por las paredes
transgredir el arte
vamos yo se bien que puedes
soy el imposible hombre impasible
toca el Riff 1
uuuuuuuuuuuuuuuuuuu aaaaaaaaaaaaaaaaaaaaaaaaaa
Se que seguirás cantando tus verdades mentirosas
pero falta más que una canión para cambiar las cosas
en el mundo del hombre impasible
aaaaaaaaaaaaaaaaaaaa
Soy el imposible hombre impasible
Que la disfrutes! Siempre Tacvba!



© LaCuerda.net · aviso legal · privacidad · contacto
DINAMICO