Acordes de Guitarra » C »Café Tacuba » las Batallas (Tab)

las Batallas
Café Tacuba

Letras, Acordes y Tabs para Guitarra, Bajo y Ukulele

  •    E                         G#m
    E|-12-12-x-12-12-12-14-12-12---11-11-x-11-11-11-12-11-11-|
    B|-12-12-x-12-12-12-12-12-12---12-12-x-12-12-12-12-12-12-|
    G|-13-13-x-13-13-13-13-13-13---13-13-x-13-13-13-13-13-13-|
       D                        A           B
    E|-10-10-12-10--10-10-12-10---9--9--x-9---7-7-7-|
    B|-10-10-10-10--10-10-10-10---10-10-x-10--7-7-7-|
    G|-11-11-11-11--11-11-11-11---11-11-x-11--8-8-8-|x2
    
    E          G#m
     Oye carlos por que tuviste
            D                          A     B
     que salirte de la escuela esta mañana
    
    E          G#m
     Oye Carlos por que tuvieste
            D                        A      B
     Que decirle que la amabas a Mariana
    
    F#m                    E
    
  • E B D A B - E G#m D A B
    Intro
    
    E          G#m
    Oye carlos
    
    porque tuviste
           D                         A
    que salirte de la escuela esta mañana
    E          G#m
    oye carlos
    
    porque tuviste
           D                         A
    que decirle que la amabas, a mariana
    C#m                   E
    en la escuela se corrio el rumor
    C#m                         B7
    y en tu clase todo el mundo se entero
    
    
  • G          Bm
     Oye carlos por que tuviste
            F                          C
     que salirte de la escuela esta mañana
    
    G          Bm
     Oye Carlos por que tuvieste
            F                        C
     Que decirle que la amabas a Mariana
    
    F#m                    E
     En la escuela se corrio el rumor
    F#m                     E7           B
     Y en tu clase todo el mundo se entero
    
    G            Bm
     Y en tu casa papa te pregunto
    F                                     C
     Si a caso fue tu hermano quien te indujo
    
    
  • E-|-12-12x12-12-12-14-14x-12-12--11-11x11-11-11-12-11-11x-|-
    B-|-12-12x12-12-12-12-12x-12-12--12-12x12-12-12-12-12-12x-|-
    G-|-13-13x13-13-13-13-13x-13-13--11-11x11-11-11-11-11-11x-|-
    
    E-|-10-10-12-10x--10-10-12-10-10-10x----------------------|-
    B-|-10-10-10-10x--10-10-10-10-10-10x----------------------|-
    G-|-11-11-11-11x--11-11-11-11-11-11x----------------------|-
    
    E-|--9x-9x-9--9---7--7--7--7------------------------------|-
    B-|-10x10x10-10--10-10-10-10------------------------------|-
    G-|--9x-9x-9--9---9--9--9--9------------------------------|-
      [Se repite una vez más]
    
    
    E           G#m
     Oye Carlos
                          D                        A
    ¿Porque tuviste,que salirte de la escuela esta mañana?
    E           G#m
     Oye Carlos
    
  • e---12--12--12--12------14--14--14------11--11--11--11------12--12--12--12-
    B---12--12--12--12------12--12--12------12--12--12--12------12--12--12--12-
    G---13--13--13--13------13--12--13------11--11--11--11------11--11--11--11-
    D--------------------------------------------------------------------------
    A--------------------------------------------------------------------------
    E--------------------------------------------------------------------------
    
    e----9---9-p10p9---9---9--p10p9-----7--7--7--7-----9--9--9-------------
    B---10--10--------10--10------------7--7--7--7-----7--7--7-------------
    G----9---9---------9---9------------8--8--8--8-----8--8--8-------------
    D----------------------------------------------------------------------
    A----------------------------------------------------------------------
    E----------------------------------------------------------------------
    
    
    E        G#m     
    Oye Carlos por que tuviste
           D  Dsus4  D
    que salirte de la escuela 
            A
    
  • weno aca les dejo un tema weno
    Las notas entre parentesis son aspiradas
    las que no tienen nada son las sopladas.
    
    armonica en: do (c).
    
    empieza la guitarra sola luego entra la bateria
    y cuando cantan...
    oye carlos, porque tuviste que...etcetera.
    se toca...
    
    6 (5)5 6
    (5) 5 (5)
    5 4
    
    se repite una y otra vez, esto mismo se toca durante el solo...
    y luego se repite casi al final...
    oye carlos, porque...etcetera, pero sin armonica.
    y luego el segundo y ultimo solo...
    
    (4) 4 (3) (4)
    se repite...
    
    (4) 5 (5)
                 el cinco aspirado se toca 7 veces.
    5(5)5 4 3
    
    (se repite el solo completo)
    
    weno espero que les salga bien y
    que les guste
      cualquier consulta, duda o
     comentario arriba aparece mi e-mail
    
       suerte!!
  • +
    ¡Colabora con nosotros!
    Envíanos tu versión de esta canción

Letra de las Batallas
Oye carlos por que tuviste
que salirte de la escuela esta mañana
Oye Carlos por que tuvieste
Que decirle que la amabas a Mariana
En la escuela se corrio el rumor
Y en tu clase todo el mundo se entero
Y en tu casa papa te pregunto
Si a caso fue tu hermano quien te indujo
O peor aun, fue Mriana si
Fue ella quien te lo propuso
Papa dijo: este niño no es normal
Sera mejor llevarlo al hospital
Aqui se toca la Figura 1
Por alto que este el cielo en el mundo
Por hondo que este el mar profundo
No habra una barrera en el mundo
Que mi amor profundo no rompa por ti
Aqui se vuelve a tocar la figura 1 pero solo una vez y
despues del B cambias a un C# para hacer cambio a F#
Oye carlos por que tuviste
que salirte de la escuela esta mañana
Oye Carlos por que tuvieste
Que decirle que la amabas a Mariana
bueno0 espero0 les haya gustado esta rolita que esta super padre :P
<<SLIGHT//>>




[las Batallas chords][las Batallas cifra]
© LaCuerda.net · aviso legal · privacidad · es · en · pt · contacto