Acordes de Guitarra » B »Bulldog » Sangre combativa (Tab)

Sangre combativa
Bulldog

  • Letra y Acordes
    G           C          G             D
    Tengo algo que decirte, es que te vayas de aqui
    Em             C                 Em         Am
    No haces nada por sumar, es aburrido estar asi
    G          D                 Em         C
    Ha pasado mucho tiempo desde la revolucion
    D                 C         D                   C
    Y no se si te extraño o que, y no se si sos extraña o que
    
    
    No me interesan los diarios, nada nuevo hay por ahi
    Creo que te estas muriendo y yo te veo desde aqui
    No me mires mas a los ojos, distraido yo me fui
    Ya no conozco tu risa, estas muy tensa para mi
    
    
    
    Estribillo
    
    ---------------------------------------------------
    
  • Tablatura
    Aca les dejo el solo 1 de Sangre Combativa
    
    e|------------------------------------------------------------|
    B|------------------------------------------------------------|
    G|---14/12--------12------------------12--------12-------12---|
    D|-----------14---------------12/14--------14--------14-------|
    A|--------------------12/14-----------------------------------|
    E|------------------------------------------------------------|
    
    e|-----------------------------------------------------------------|
    B|-----------------------------------------------------------------|
    G|---14-12-14-12---11/12/11--------------------------12-12-14-12---|
    D|---14-12-14-12--------------14-14-12/14-14/12-14-----------------|
    A|-----------------------------------------------------------------|
    E|-----------------------------------------------------------------|
    
    e|-------------------------------------------------------|
    B|-------------------------------------------------------|
    G|------------------------------------
  • +
    ¡Colabora con nosotros!
    Envíanos tu versión de esta canción

Letra de Sangre combativa
Tengo algo que decirte, es que te vayas de aqui
No haces nada por sumar, es aburrido estar asi
Ha pasado mucho tiempo desde la revolucion
Y no se si te extraño o que, y no se si sos extraña o que
No me interesan los diarios, nada nuevo hay por ahi
Creo que te estas muriendo y yo te veo desde aqui
No me mires mas a los ojos, distraido yo me fui
Ya no conozco tu risa, estas muy tensa para mi
Estribillo
Junto muchas fuerzas y se transformo
Fue para adelante y nunca paro
Y a pesar de las tormentas siempre a flote el salio
Ven, que loco que es el amor
Tus ideas no son muy claras, no entiendo que me planteas
Yo cambiaria ciertas cosas y otras las dejaria en su lugar
Estas todo el tiempo viendo lo que hacen los demas
Es una forma muy clara, de mostrar inseguridad
Estoy tan cerca de tu casa, igual nose si voy a pasar
No es que me acuerde de aquella pelea, es que estoy harto, harto, harto de pelear
Mañana cuando yo me muera a buscarme no vengas
Jamas voy a estar bajo tierra, soy viento de libertad
Estribillo ->
Hizo lo que pudo y no se rindio
Lucho con el alma y con el corazon
Y a pesar de las tormentas siempre a flote el salio
Ven que loco que es el amor
e|-0-|
B|-3-|
G|-2-| compren el disco !
D|-0-|
A|-0-|
E|-2-|



© LaCuerda.net · aviso legal · privacidad · contacto