Acordes de Guitarra » B »Bulldog » Otra vez (Tab)

Otra vez
Bulldog

  • Letra y Acordes
          DO5 LAm x2
    
          RE5 FA5 MI5 RE5   x2
    
    DO5                    LAm             LAm SI5 DO5
    La historia de dos corazones negros
    
                          LAm
    Que locos se encontraron en vuelo
    
           RE5            SOL5
    Y que juntos así vivieron
    
               DO5        FA5
    Siempre al borde del final
    
                         SOL5
    Pero nunca más regresar.
    
    DO5                   LAm              LAm SI5 DO5
    
  • Tablatura
    e|--------------------------------|
    B|------3-3-5-5-----5-5-3---------|
    G|-55-5---------5-5-------5-2-2~--|
    D|--------------------------------|
    A|--------------------------------|
    E|--------------------------------|
    
    e|--------------------------------------------|
    B|-------3-3-5-5----5-5-3--------3-2-2-3-2-2--|
    G|-s55-5--------5-5-------5-2-2~-3-2-2-3-2-2--|
    D|--------------------------------------------|
    A|--------------------------------------------|
    E|--------------------------------------------|
    
    e|---------------------------------|
    B|--------5---5-6-5----------------|
    G|-s7-7-7---7-------7-5-5~---------|
    D|---------------------------------|
    A|---------------------------------|
    E|---------------------------------|
    
  • +
    ¡Colabora con nosotros!
    Envíanos tu versión de esta canción

Letra de Otra vez
La historia de dos corazones negros
Que locos se encontraron en vuelo
Y que juntos así vivieron
Siempre al borde del final
Pero nunca más regresar.
Condenados por el mismo momento
Haciendo de cada día un sueño
Porque es parte de esta vida
Seguir siendo siempre así
Aunque ellos no tengan porvenir
Y es siempre lo mismo!
Otra vez! Luchando por la vida
Otra vez! Ya no tenés salida
Otra vez! Pasaste por el mismo error,
Otra vez y es siempre lo mismo
Otra vez! Luchando por la vida
Otra vez! Ya no tenés salida
Otra vez! Pasaste por el mismo error,
Otra vez y es siempre lo mismo
Y ahora sobre la ultima recta
Parece ella no estar despierta
Y que esta vez su corazón
Voló muy lejos hoy
Pero nunca más regresó...... noo noo !! ♫ ♫
Él delira y piensa muy lento
Y solo fue una cuestión de tiempo
Y caminó lento hacia el balcón y allí se despidió
Para reencontrarse con su amor,
Y hacer allá lo mismo.
Otra vez! Luchando por la vida
Otra vez! Ya no tenés salida
Otra vez! Pasaste por el mismo error,
Otra vez y es siempre lo mismo
Otra vez! Luchando por la vida
Otra vez! Ya no tenés salida
Otra vez! Pasaste por el mismo error,
Otra vez y es siempre lo mismo
FINAL
RE5 (se queda un toque en RE y termina en Do)



© LaCuerda.net · aviso legal · privacidad · contacto