Acordes de Guitarra » B »Bulldog » Fatal destino (Tab)

Fatal destino
Bulldog

Letras, Acordes y Tabs para Guitarra, Bajo y Ukulele

  • INTRO: Am
           Am F G C B X2        
    
    
       Am                 F
    Caia muy lenta la madrugada
       G                             C B
    afuera llovia y no se veia nada
       Am                  F      
    buscaba otro trago que me calmara
       G                             C B
    algo que me bajara esta ansiedad
    
    
       Am                       F
    Recorri las calles sin un rumbo cierto
       G                             C B              
    a veces dormido a veces despierto
       Am                       F 
    miradas perdidas cruzandose en sueños
    
  • bueno...esto es muy fasil!!!
    
    
    E--5-5-5-5-5-5-----------------------------------------
    B--5-5-5-5-5-5-----------------------------------------
    G--5-5-5-5-5-5------------------------------------------
    D---------------------------------0----0-2--------------
    A----------------------0--0-3--3------------------------
    E------------------0-3---------------------------------
    
    E------------------------------------------------------
    B-----------------1-1-0-1-0-----0----------------------------
    G-----0--2-2---0-------------2------------------------------
    D--2---------2-------------------------------------------
    A-----------------------------------0-0-3-----------------
    E------------------------------------------------------
    
    
    E------------------------------------------------------
    B-----------------------------------3-3-1-3-1-0-1-------------
    G---------------0--2-2-0-2-0-----0----------------2------------
    D-----0--0-2--2---------------2-----------------------------
    A--3-----
  • Bueno este es mi primer intento espero que les guste...
    
    
    e|------------------------------------------------------------|
    B|-----------------------------------------------1-1-0-1-0--0-|
    G|-------------------------------0-2-0-2-0----0------------2--|
    D|--------------------0-0--2-2--------------2-----------------|
    A|-----0------0-0-2-2-----------------------------------------|
    E|-0-2----0-2-------------------------------------------------|
    
    e|-----------------------------------------------------0---3--|
    B|----------------------------------3-3-1-3-1-0-1---0-3--5----|
    G|--------------------0-2-0-2-0---0---------------2-----------|
    D|----------0-0-2-2-------------2-----------------------------|
    A|-0-0-2-2----------------------------------------------------|
    E|------------------------------------------------------------|
    
    e|------------------------------------------------------------|
    B|-------5---------------|-x2---|---------|-x2---|------------|
    G|-4-4/5---5-4-4-5-4-2----5-4-2-0---------5-
  • intro:
    
    G:--------
    D:--------
    A:-7/10-12
    E:--------
    
    G:--------------------------------------------------19-19-17-19-17--17------------------------------
    D:-------------------------------17-19-----19-17--17--------------19--19-19-17-17------17-----------
    A: 7/10-12--12-15-15-17-19-17-15------17-17-----19--------------------------------19-19--19-17/12-12
    E:--------------------------------------------------------------------------------------------------
    Continuacion
    
    G:-----------------------------------19-19-17-19-17--17------------------------------
    D:---------------17-19------19-17--17--------------19--19-19-17-17-----17------------
    A:12/15-19-17-15-------17-17-----19-------------------------------19-19---19-17/12-12-
    E:------------------------------------------------------------------------------------
    verso:
    
    G:-------------------------------------------------
    D:--------------3-3-2-0-----------------------------
    A:-----------------------------0-2-3----2-3-2-0/1
  • Hola, mi nombre es Brian, les dejo la tab para bajo de Fatal destino,
    q en el otro tiene algunas cosas mal...
    
    INTRO - BAJO
    G---------
    D---------
    A-7-10--12
    E---------
    
    G-----------------------------------------------------
    D-----------------------------------17-19----17-19-17-
    A-7-10--12--12-15--15-17--17-19--19-------19----------
    E-----------------------------------------------------
    
    ------17-17-16-17-16----16-------------------------------
    ---17----------------19----19--19-17--17-------17----17-
    19---------------------------------------19-19----19-----
    ---------------------------------------------------------
    
    
    G-----------------------------------------------------19-19-17-19-17-16-17----------------
    D-----------------------------17-19----17-19-17----17----------------------19-19-19-19...-
    A-12--12-15--15-17--17-19--19-------19----------19----------------------------------------
    E-----------------------------------------------------------------------------------------
    
    VERSO
    
    G----
  • +
    ¡Colabora con nosotros!
    Envíanos tu versión de esta canción

Letra de Fatal destino
Caia muy lenta la madrugada
afuera llovia y no se veia nada
buscaba otro trago que me calmara
algo que me bajara esta ansiedad
Recorri las calles sin un rumbo cierto
a veces dormido a veces despierto
miradas perdidas cruzandose en sueños
se mezclan con el humo de mi cigarette
Un rayo de sangre quebraba la noche
un minuto horrible de pisos mojados
el auto giraba para todos lados
yo estaba mareado no tenia control
El cielo lloraba mi fatal destino
dame un cuarto de soda tres cuartos de vino
ahora miro las flores desde abajo
y solo vivi un pedazo de mi vida.




[Fatal destino chords][Fatal destino cifra]
© LaCuerda.net · aviso legal · privacidad · es · en · pt · contacto