Acordes de Guitarra » B »Bulldog » Piruvari (Tab)

Piruvari
Bulldog

  • Tablatura
    e||------------------||
    B||--8-8-7-7---------||
    G||----------9-9-7-0-||
    D||------------------||
    A||------------------||
    E||------------------||
    
    D5 X 6 y metes este riff
    
    e||------------------||
    B||---7-7-5-5--------||
    G||-----------7-7-5-0||
    D||------------------||
    A||------------------||
    E||------------------||
    
    C5 X 6 y metes este riff
    
    e||------------------||
    B||--5-5-3-3---------||
    
  • Tablatura
    Bueno, acá les dejo el punteo de este temazo de Bulldog, ya habia una tab
    de este tema, la cual tiene los acordes perfectos,
    pero no tenía el punteo...
    
    
        E                 D                 C                 G
    E|---------------------------------------------------------------------|
    B|-----8-8-7-7-----------7-7-5-5-----------5-5-3-3---------------------|
    G|--9----------9-9-7--7----------7-7-5--5----------5-5-4--5-4-5h4-5-4--|
    D|--9-----------------7-----------------5------------------------------|
    A|--7-----------------5-----------------3------------------------------|
    E|---------------------------------------------------------------------|
    
    
    Kb_77
  • Tab p/Bajo
            Piruvari-Bulldog-yo estuve hay
    
    
    
            INTRO
                                          *(VECES NECESARIAS)
    
            -------------------------------------------------
            ----2----------222*----------------------54------
            -------5--3--------555*-333*---------2-5---------
            -------------3*------------------3---------------
    
    
            -------------------------------------------------------------
            ----2-222222-222-45--------------54--------------45-454-54---
            --------------------5-555555-555----3-333333-333-------------
            -------------------------------------------------------------
    
    
            VERSOS
    
            --------------------------------------------------
            ---222*-------------------54----------------------
            --------555*-333*---------------------------------
            ------------------3-33-33-------------------------
    
    
            ---------------------------------------------------
            ---222*-------------------54-2-----------------
  • +
    ¡Colabora con nosotros!
    Envíanos tu versión de esta canción

Letra de Piruvari
D5 X 6 y metes este riff
C5 X 6 y metes este riff
despues de G al aire, haces G5 un par de veces,
fijate en el tema para tener una mejor guia.
SALUDOS! (:
Necesito solución
Para calmar mi dolor
No lo puedo controlar
Y me causa sensación
Buscar una explicación
Y no poderla encontrar
No será que te ves buena
Los domingos de mañana
Yo así espero, hasta el próximo consuelo
Yo me muero si de pronto
Llega un mundo que, es irreal
Cambia mi vida, paso a paso, día a día
Escribir esta canción
Signo de superación
Vale si hay buena intención
Proseguir con el error
Causa una gran decepción
Tiempo de meditación
No será que te ves buena
Los domingos de mañana
Yo así espero, hasta un próximo consuelo
Yo me muero si de pronto
Llega un mundo que, es irreal
Cambia mi vida, paso a paso, día a día
Juan Schlishting 'Aguante el quemo de karlitos'
Rawson- Chubut



© LaCuerda.net · aviso legal · privacidad · contacto
DINAMICO