Acordes de Guitarra » B »Bulldog » Fiel (Tab)

Fiel
Bulldog

Letras, Acordes y Tabs para Guitarra, Bajo y Ukulele

  • Intro : G | Bm | Em | D C | x2 (Fijense bien cuantos compaces por acorde)
    
    La secuencia de acordes es la misma en todo el tema solo
    que va subiendo de a tonos la tonalidad.
    
    
    G                                                      Bm
    Fiel, como un frasco de vidrio endurece su fondo con miel
                                                   Em
    como locomotora que solo camina en su propio riel
                D            G
    como los zapatos a sus pies
    
    Fiel, como el agua y la sal al mar y al océano también
    como un soldado solo obedece a su brigadier
    como un adicto a su cigarettes.
    
    Fiel, como un secuestrador solo tortura a su rehén,
    como el padre nuestro a la Virgen Maria, Amen
    como la vela a la noche,
    
  • e|---------------------------------------|
    B|---------------------------------------|
    G|--12-14-12-12-14-12-12-14-12-12-14-12--|
    D|---------------------------------------|
    A|---------------------------------------|
    E|---------------------------------------|
      hace eso varias veces sobre el G y el B, despues:
    
       E                               D                       C
    e|------------------------------------------------------------------------|
    B|-------15--------15--15-15-15-15-13-12-11-12-11----11-------------------|
    G|-14b16-----14b16--------------------------------14----14-12----12-14-14-|
    D|------------------------------------------------------------14----------|
    A|------------------------------------------------------------------------|
    E|------------------------------------------------------------------------|
    
       G
    e|-------------------------------------------------|
    B|-------------------------------12-13-15-13-12----|
    G|-------------------12----12-14----------------14-|
    
  • +
    ¡Colabora con nosotros!
    Envíanos tu versión de esta canción

Letra de Fiel
La secuencia de acordes es la misma en todo el tema solo
que va subiendo de a tonos la tonalidad.
Fiel, como un frasco de vidrio endurece su fondo con miel
como locomotora que solo camina en su propio riel
como los zapatos a sus pies
Fiel, como el agua y la sal al mar y al océano también
como un soldado solo obedece a su brigadier
como un adicto a su cigarettes.
Fiel, como un secuestrador solo tortura a su rehén,
como el padre nuestro a la Virgen Maria, Amen
como la vela a la noche,
como el 9 al 10.
Fiel, como balas de plomo cargadas en linea en una 16
como botas borcegos descargan patadas buscando placer
como tu y yo juntos en el Edén.
Fiel, como a las al viento elevan su lamento flotando en él
como peces voraces que aman el agua y rompen la red
como la pluma al poeta,
el pintor al pincel ...
Fiel, cual feroz tormenta que arrasa con todo lo que haya a sus pies,
cual estrella fugaz quiere ser la primera en hacerse ver
como desde lo alto puedes caer.
puede caer x3... - la ultima hace E | B




[Fiel chords][Fiel cifra]
© LaCuerda.net · aviso legal · privacidad · es · en · pt · contacto
DINAMICO