Acordes de Guitarra » B »Bulldog » El Angel de la Muerte (Tab)

El Angel de la Muerte
Bulldog

Letras, Acordes y Tabs para Guitarra, Bajo y Ukulele

  • A 
    Puede llegar a mí 
    
    D A 
    El ángel de la muerte 
    
    A 
    Yo lucharé hasta el fin 
    
    E 
    Para quedarme aquí 
    
    F# 
    No logrará llevarme 
    
    D A 
    ese camino negro 
    
    A 
    Donde los sordos 
    
  • (aclaro que el tema lo saque del disco
    "yo estuve ahi y nosotros tmb")
    intro
    empieza una guitarra arpeguiando un LA de la siguiente manera:
    e-------------------
    B------2---2---2----
    G----2---2---2---2--
    D-------------------
    A--0----------------
    E-------------------x2
    
    e--------------------------------------------------|
    B------2---2---2-----------------2---2--2----------|
    G----2---2---2---2--2-2-4-6----2---2--2--2-2-2-4-2-|
    D--------------------------------------------------|
    A--0-------------------------0---------------------|
    E--------------------------------------------------|
    La otra guitarra
    e--------------------------------------------|
    B--------------------------------------------|
    G--------------------------------------------|
    D---7---7-9-11-11-14-11-11h12-12-12-12-11--7-|
    A--------------------------------------------|
    E--------------------------------------------|
    
    e--------------------------------------------|
    B-----------------------------------12-------|
    G------------------
  • e--------------------------------------------|
    B--------------------------------------------|
    G--------------------------------------------|
    D---7---7---7-7-9-7---7-7-9-11-11-12-12--11--|
    A-7---7---7---------7------------------------|
    E--------------------------------------------|
    
    e--------------------------------------------|
    B--------------------------------------------|
    G----------------------------------14--14-13-|
    D---7--7--9-7-11-11-12-14-14-15-16-----------|
    A--------------------------------------------|
    E--------------------------------------------|
    
    e--------------------------------------------|
    B--------------------------------------------|
    G--------------------------------------------|
    D--16-14-14-16!-11-12-11--9-11-11--7-9-7-7^9-|
    A--------------------------------------------|
    E--------------------------------------------|
    
  • bueno esta es la version en vivo... espero q les guste...es facil!!!
    intro
    G:--------
    D:--------
    A:----0-2-3
    E:--2------
    
    G:--------
    D:--------
    A:---0-2-0
    E:-2------
    
    
    G:-------------------------
    D:-------------------------
    A:----0-2-3/-5/-3/-7/-5/-3/
    E:--2----------------------
    
    G:----------------------------------
    D:----------------------------------
    A:--11/12-12/19-19-17-15------------
    E:-----------------------15-15-15-15
    
    puede llegar a mi
    G:--------------------------------------
    D:--------------------------------------
    A:------12-14-15-12-15-15/17-17-17-17-15
    E:---14---------------------------------
    
    G:--------------------------------------
    D:--------------------------------------
    A:------12-14-15-12-15-15/20-20-20-20-20
    E:---14---------------------------------
    
    G:-------------------------------------------------------------------------
    D:-------------------------------------------------------------------------
    A:-20-20-20-15-15-15-15-15-15------------------17-17-17-15-15-15------
  • +
    ¡Colabora con nosotros!
    Envíanos tu versión de esta canción

Letra de El Angel de la Muerte
Puede llegar a mí
El ángel de la muerte
Yo lucharé hasta el fin
Para quedarme aquí
No logrará llevarme
ese camino negro
Donde los sordos
Pueden oír
Me imagino el lugar
Con antorchas de fuego
Y justo al final
Un castillo negro
Si yo llego hasta ahí
Lo haré a mi manera
No como los demás
Quieran decir.
Puede llegar a mí
El ángel de la muerte
Yo lucharé hasta el fin
Para quedarme aquí
No logrará llevarme
ese camino negro
Donde los sordos
Pueden oír




[El Angel de la Muerte chords][El Angel de la Muerte cifra]
© LaCuerda.net · aviso legal · privacidad · es · en · pt · contacto
DINAMICO