Acordes de Guitarra » B »los Bukis » Tu cárcel (Tab)

Tu cárcel
los Bukis

Letras, Acordes y Tabs para Guitarra, Bajo y Ukulele

  •  C
    Te vas amor si asi lo quieres
        G7                    E7
    que le voy hacer, tu vanidad
            Am           F
    no te deja entender.
                   D7     G7
    Que en la pobreza se sabe querer.
     C
    Quiero llorar y me destroza 
            G7
    que pienses asi, y mas que 
      E7        Am         F
    ahora me quede sin ti 
             D7         G7 
    Me duele lo que tu vas a sufrir.
     C
    Pero recuerda, nadies perfecto
      G7                        E7
    y tu lo veras. Talvez mil cosas
    
  • Intro: C - G - Am - F - D - G
    
    
    C
    Te vas amor si así lo quieres
        G
    que le voy hacer, tu vanidad
            Am
    no te deja entender
    F              D       G
      que en la pobreza se sabe querer.
    
     C
    Quiero llorar y me destroza
         G
    que pienses así, y mas que
               Am
    ahora me quede sin ti
    F          D         G             G7
      me duele lo que tu vas a sufrir.
    
  • e ----------------8--8--8--12--12--8--7--7--------
    B --8--8------------------------------------10--8-
    G ---------10--9----------------------------------
    D ------------------------------------------------
    A ------------------------------------------------
    E ------------------------------------------------
    
    
    
    e --7--7--7--10--10--7--8--8--7------8--8--8--8--7---------------7-
    B -------------------------------10-----------------10--8--8--8----
    G -----------------------------------------------------------------
    D -----------------------------------------------------------------
    A -----------------------------------------------------------------
    E -----------------------------------------------------------------
    
    
    
    
    C
    
  • 1---0-0-----------5-5-5--9-9--5-4-4-2-0----4-4-4--7-7-4-5-5-4-2----------
    2--------3-2-------------------------------------------------------------
    3------------------------------------------------------------------------
    4------------------------------------------------------------------------
    5------------------------------------------------------------------------
    6------------------------------------------------------------------------
    
    
    1---5-5-5-5-4-2-0-0-0-4--------------------------------------------------
    2------------------------------------------------------------------------
    3------------------------------------------------------------------------
    4------------------------------------------------------------------------
    5------------------------------------------------------------------------
    6------------------------------------------------------------------------
    
    
    1---0-0-----------5-5-5--9-9--5-4-4-2-0----4-4-4--7-7-4-5-5-4-2----------
    2--------3-2-------------------------------------------------------------
    3------------------------------------------------------------------------
    4------------------------------------------------------------------------
    
  • INTRO.
    
       C                             G                            A
    G|--------------------------------------|------------------------------
    D|-----5-----5---------5------5-------5-|----------5--5----3---------9-
    A|-3-----3-----5---3-----3------5---5---|-5-------5-----5----3------9--
    E|--------------------------------3-----|---5--3---------------s--7----
    
       G  F         D       G
    G|----------------7--------------------------------------
    D|--------------7---5--------------5----5--------------
    A|--------3--5--------5----5-----------------------------
    E|-3--1-----------------3----5--3-----3----3-------------
    
    Acompañamiento
       C                             G                            A
    G|--------------------------------------|-------------------------------
    D|-----5-----5---------5------5-------5-|----------5--5----3--------9---
    A|-3-----3-----5---3-----3------5---5---|-5-------5-----5----3-----9----
    E|--------------------------------3-----|---5--3--------------s---7-----
    
       G  F  
  • +
    ¡Colabora con nosotros!
    Envíanos tu versión de esta canción
  • Tutorial
    Tu Carcel (Version Mejorada)
    Como Tocar
    Los Bukis
    Enanitos Verdes
    4:13
  • Tutorial
    HD
    como tocar TU CARCEL en guitarra MARCO ANTONIO SOLIS
    5:46

Letra de Tu cárcel
Te vas amor si asi lo quieres
que le voy hacer, tu vanidad
no te deja entender.
Que en la pobreza se sabe querer.
Quiero llorar y me destroza
que pienses asi, y mas que
ahora me quede sin ti
Me duele lo que tu vas a sufrir.
Pero recuerda, nadies perfecto
y tu lo veras. Talvez mil cosas
mejores tendras
pero un cariño sincero jamas.
Vete ollvidando, esto que hoy dejas
y que cambiaras, por la ventura que
tu ya veras.
Sera tu carcel y nunca saldras.




[Tu cárcel chords][Tu cárcel cifra]
© LaCuerda.net · aviso legal · privacidad · es · en · pt · contacto