Acordes de Guitarra » B »los Bukis » Me volví acordar de tí (Tab)

Me volví acordar de tí
los Bukis

Letras, Acordes y Tabs para Guitarra, Bajo y Ukulele

  •  A                    Bm  E
    Despues de vivir tan solo 
                          A  C#m A
    en mi vuelve a despertar
      C#m                Bm   E
    como una obsesion inmensa
                        A    C#m A 
    el sentimiento de amar.
         A7              D            
    No puedo negar que ahora la tormenta
           A                           Bm   B7
    se acabo, que vuelve a brillar el cielo
                      E   D-C#m-Bm-A
    que un dia oscurecio.
           E             A
    Me volvi acordar de ti, cuando cada pareja
                  E                          C#7
    que tanto quisimos, cuando junots reimos en
            F#m        A                  A7
    aquel abril ya la vida les dio un hermoso
    
  • G] ----------------------------|-------------------------------
    D] ---------7------------------|----7--------------------------
    A] ------------7/9------7------|-------7—---7/9-97—7/9---------
    E] ---5------------9-------5---|----------------------------5-- 4 veces
    
    G] --------------------------------------------------------------
    D] ---------------------7~------7~-----------------7~------------
    A] ------------777-----------------------777---------------------
    E] ---5-6-777-------55-----55-----6-777--------55----------------
    
    G] -------------7~-7------7~---------------------------------------
    D] -----------------------------7~-7------7~---------9~-9-----9~---
    A] --------55---------55-------------------------------------------
    E] --55—3~------------------55--------55------6--77--------77------
    
    G] -----9-----9------7----7-----6----6-----4--------------------
    D] ----------------------------------------------------6-7------
    A] --7----77------5----55----4----44----2----2----7--9----------
  • 1
    
    G] -------|-----
    D] -------|-----
    A] -------|-----
    E] ---5---|-----
    
    
    2
    
    G] -----------------------|-------------------------------
    D] ----7------------------|-------------------------------
    A] -------7/9------7------|-----7-9---7--9--7-------------
    E] ------------9-------5--|--------------------5---------- x3
    
    
    3
    
    G] -----------------------|---------------------------------
    D] ----7------------------|---------------------------------
    A] -------7/9------7------|-----7-9-------------7-7-(7)-----
    E] ------------9-------5--|-----------6--7-7-7-------0------
    
    
    4
    
    G] ---------------------|----------------------------
    D] ---------7--------7--|----------------------------
    A] ---------------------|------------7-7-(7)---------
    E] ----5-5------5-5-----|--6--7-7-7-------0----------
    
    
    5
    
    G] ----------------------|------7--7-------7--|-----------------|--
    D] ---------7--------5---|--------------------|-------7------7--|--
    A] ----------------------|--5-5-------5-5-----|-----------------|--
    E] ---
  • +
    ¡Colabora con nosotros!
    Envíanos tu versión de esta canción

Letra de Me volví acordar de tí
Despues de vivir tan solo
en mi vuelve a despertar
como una obsesion inmensa
el sentimiento de amar.
No puedo negar que ahora la tormenta
se acabo, que vuelve a brillar el cielo
que un dia oscurecio.
Me volvi acordar de ti, cuando cada pareja
que tanto quisimos, cuando junots reimos en
aquel abril ya la vida les dio un hermoso
par de niños.
No pense que corriera el tiempo, tanto asi.
Desde ese dia quede preguntandome que seria
de tu vida, si tambien enconraste el verdadero
amor o si guardas como yo en el alma escondida,
esa fe de encontrarnos y darnos lo mejor.
(Se vuelve a repetir)
Me volvi acordar de ti...etc.




[Me volví acordar de tí chords][Me volví acordar de tí cifra]
© LaCuerda.net · aviso legal · privacidad · es · en · pt · contacto