Tablatura para Bajo de Benny Ibarra: Mía
Conexión · Inscripción
Letras y Acordes
Pantalla Completa
Imprimir
Versión Texto
Añadir Favorito
Otras Versiones

Mostrar Diagramas
Desfile Automático
Formato del Texto


Mía(BAJ)

Benny Ibarra

calidad:
biba0102
AUTOR: P. Carráz, Memo Méndez Guiú
ALBUM: Uno
Enviado por eduardo
E. CABALLERO

LA CANCION EMPIEZA CON EL PIANO Y EL BAJO ASI...


G--------------2------------------------
D-------2-2-2-----5--33-5---------------
A-3-3-3---------------------------------
E---------------------------------------

LA CANCION VA ASI...

G---------2----------------------------
D-----2-2----5--3-35-------------------
A-3-3----------------------------------
E-------------------------------------- 2 VECES

G-------------------------------------
D--5-5-5-5----------------------------
A-------------------------------------
E-------------------------------------

 CUANDO LLEGA LA HORA DE HACERTE EL AMOR
G-------------------------------------
D-3--3-4-5--5-6--7-5-3----------------
A-------------------------------------
E-------------------------------------


G------------5------------------------
D-3333--5--5--------------------------
A-------------------------------------
E-------------------------------------

G-------------------------------------
D--5-5-5-5----------------------------
A-------------------------------------
E-------------------------------------

POR QUE LLEGO ATOCAR CADA OBSCURO RINCON...

G-------------------------------------
D-3--3-4-5--5-6--7-5-3----------------
A-------------------------------------
E-------------------------------------

G-------------------------------------
D-3-33-22-22-33-33--5-5---------------
A-------------------------------------
E-------------------------------------

SE REPITE TODO UNA VEZ MAS......
Este fichero es trabajo propio de su transcriptor y representa su interpretación personal de la canción. El material contenido en esta página es
para exclusivo uso privado, por lo que se prohibe su reproducción o retransmisión, así como su uso para fines comerciales.

© LaCuerda.net · Aviso Legal · Privacidad