Acordes de Guitarra » B »los Babasónicos » Fizz (Tab)

Fizz
los Babasónicos

Letras, Acordes y Tabs para Guitarra, Bajo y Ukulele

  •       C              Am               C          Am
    e|-----------0-----------0------------------0---------0-----|
    B|---------1----------------1-------------1--------------1--|
    G|-------0-------------2----------------0-----------2-------|
    D|----2--------------2----------------2----------2----------|
    A|----3-------3-2----0-------0--2-3---3-----3-2--0----------|
    E|----------------------------------------------------------|
    
    Este es un arpegio que en esas dos notas lo hace siempre..
    
    
    
    Am       C         Am
    Duelo de vedettes,
    Am    C            Am
    pluma por doquier,
    Am    F
    ira a flor de piel,
          G            E
    le clavó su taco aguja,
    
  • DO LAm x2
    
             DO      LAm
    Duelo de vedettes,
          DO         LAm
    pluma por doquier
          FA
    ira a flor de piel
          SOL         MI
    le clavo su taco aguja.
    
    LAm                    DO
    Y ahora esta del otro lado
    LAm              DO
    no conecta el pasado
          FA              MI
    su conciencia, la atormenta y huye.
    
    CORO x2
    DO
    
  • intro: C Am C Am
    
    C              Am C             Am      
    DUELO DE VEDETTE,PLUMA POR DOQUIER
         F
    IRA FLOR DE PIEL
          E
    LE CLAVO SU TACO AGUJA
    
    C                      Am
    Y AHORA ESTAS DEL OTRO LADO
    C                Am
    NO CONECTA EL PASADO
            F             E
    SU CONCIENCIA, LA ATORMENTA Y HUYE
    
    C                           Am                              
    FIESTA DE FARSANTES EN LA ESPUMA SOCIAL                         
          D       G
    INVITAME A PASAR            X2
    
  • G----------------|
    D----------------|
    A-3--3--3-2-0--0-|
    E----------------|
    
    G--------------------|
    D--------------------|
    A-0-2-3--3--3-2-0--0-|
    E--------------------|
    
    G--------------------|
    D--------------------|
    A-0-2-3--3--3-2-0--0-|
    E--------------------|
    "duelo de vedette"
    
    G--------------------|
    D--------------------|
    A-0-2-3--3--3-2-0--0-|
    E--------------------|
    "pluma por doquier"
    
    G------------------------------|
    D-----3--3--3-3-3/5--5--5/2--2-|
    A-0-2--------------------------|
    E------------------------------|
    "ira a flor de piel / le clavó su taco aguja"
    
    G-----------------------------------------------------------|
    D-----------------------------------------------------------|
    A-0-0---0-0---0-2-3-3---3-3---3-2-0-0---0-0---0-2-3-3---3-3-|
    E-----------------------------------------------------------|
    "y ahora está del otro lado / no conecta el pasado"
    
    G------------------------|
    D-3-3---3-3---32-2---2-2-|
    A------------------------|
    E------------------------|
    "su conciencia 
  • +
    ¡Colabora con nosotros!
    Envíanos tu versión de esta canción

Letra de Fizz
Este es un arpegio que en esas dos notas lo hace siempre..
Duelo de vedettes,
pluma por doquier,
ira a flor de piel,
le clavó su taco aguja,
ahora esta del otro lado,
no conecta el pasado,
su conciencia,
lo atormenta y hulle.
Estribillo:




[Fizz chords][Fizz cifra]
© LaCuerda.net · aviso legal · privacidad · es · en · pt · contacto