Acordes de Guitarra » B »los Babasónicos » Estoy Rabioso (Tab)

Estoy Rabioso
los Babasónicos

Letras, Acordes y Tabs para Guitarra, Bajo y Ukulele

  • e----------------------------------------------------------
    B----------------------------------------------------------
    G----------------------------------------------------------
    D----44-33-22----------------------------------------------
    A-------------222-------------------------------------------
    E-----------------2222222-----------------------------------
    
    F#5                                 B5
    Todo bien con el diablo solo somos amigos,
      D5             A5            C#5     F#5
    Es que tuve negociando algo con el.
      F#5                         B5
    Y como del intercambio salí vivo
               A5                             C#5   F#5
    me voy a festejar hasta que me alcance la ley
      F#5                                 B5        F#5
    A la mierda lo que piensen de nosotros
     F#5                         E5
    A la mierda lo que digan los demás
      F#5
    
  • --------------------------------------------------------------------O
    Punteo inicial:                                                     |
                                                                        |
    e|----------------------------------------|                         |
    B|----------------------------------------|                         |
    G|----------------------------------------|  x3                     |
    D|--4-4--3-3--2-2-------------------------|                         |
    A|-----------------2-2--------------------|                         |
    E|----------------------2-2-2--2-2--2-2---|                         |
                                                                        |
    e|----------------------------------------|                         |
    B|----------------------------------------|                         |
    G|----------------------------------------|                         |
    D|--4-4--3-3--2-2-------------------------|                         |
    A|-----------------2-2--------------------|                         |
    E|----------------------2-----------------|                         |
                                                                        |
    --------------------------------------------------------------------O
    
    E5 F#5                                  B5
    
  •                                                       F#5
    E-------------------------------------7----6--------2--0---
    A-----------9----8----7----6----0-----------------------4--
    D----------------------------------------------------------
    G----------------------------------------------------------
    B----------------------------------------------------------
    E----------------------------------------------------------
    
    F#5                                 B5
    Todo bien con el diablo solo somos amigos,
      D5                      A5       G#5       Em
    Es que tuve negociando algo con el.
      F#5                         B5
    Y como del intercambio salí vivo
           A5                                   F#5  Em
    me voy a festejar hasta que me alcance la ley
      F#5                                 B5            Em
    A la mierda lo que piensen de nosotros
     F#5                               Em
    A la mierda lo que digan los demás
    
  • +
    ¡Colabora con nosotros!
    Envíanos tu versión de esta canción

Letra de Estoy Rabioso
Punteo inicial: |
|
|
|
Todo bien con el diablo, sólo somos amigos
es que anduve negociando algo con él
y como del intercambio salí vivo
me la voy a festejar hasta que me alcancé la ley
A la mierda lo que piensen de nosotros
a la mierda lo que digan los demás
Estribillo: |
|
Voy a escupirte entre los ojos |
te vaticino un futuro cojo y no vuelvo atrás |
porque estoy rabioso |
|
Voy a escupirte entre los ojos |
te vaticino un futuro rojo y no vuelvo atrás |
porque estoy rabioso |
Punteo inicial modificado: |
|
|
|
Quiero que mi delirio sea bien aceptado
tengo planes y persigo una visión
y a cualquiera que me llame improvisado
yo lo reto a estar parado en mis zapatos sin temblar
A la mierda lo que piensen de nosotros
a la mierda lo que digan los demás
Estribillo: |
|
Voy a escupirte entre los ojos |
te vaticino un futuro cojo y no vuelvo atrás |
porque estoy rabioso |
|
Voy a escupirte entre los ojos |
te vaticino un futuro rojo y no vuelvo atrás |
porque estoy rabioso |
Punteo inicial modificado: |
|
|
|
Acordes que acompañan el solo: E5 F#5 |
|
|
|
Estribillo: |
|
Voy a escupirte entre los ojos |
te vaticino un futuro cojo y no vuelvo atrás |
porque estoy rabioso |
|
Voy a escupirte entre los ojos |
te vaticino un futuro rojo y no vuelvo atrás |
porque estoy rabioso |
Punteo inicial modificado: |
|
|
|
Formas recomendadas para los acordes |
|
|
|
|
|
|
|




[Estoy Rabioso chords][Estoy Rabioso cifra]
© LaCuerda.net · aviso legal · privacidad · es · en · pt · contacto
DINAMICO