Acordes de Guitarra » B »los Babasónicos » El baile de Odín (Tab)

El baile de Odín
los Babasónicos

Letras, Acordes y Tabs para Guitarra, Bajo y Ukulele

  • e----------------------------------
    B----------------------------------
    G----------------------------------
    D----------------------------------
    A--2-2-2-2-2-2-2-2-2-2-2-2-2-2-2---
    E--0-3-3-0-3-3-0-3-3-0-3-0-3-4-5---
    
    e----------------------------------
    B----------------------------------
    G----------------------------------
    D----------------------------------
    A--2-2-2-2-2-2-2-2-2-2-2-2-2-1-0---
    E--0-3-3-0-3-3-0-3-3-0-3-0---------
    
    (con el riff de la intro)
    La pirotecnia en un excusado
    Corpiños en la valla del final de acción
    Corpus sudado, vaselina, termo fría
    Alguien a lo bonzo bailotea
    Te reconozco sobre los hombros de un pony
    
  • e----------------------------------
    B----------------------------------
    G----------------------------------
    D----------------------------------
    A--2-2-2-2-2-2-2-2-2-2-2-2-2-2-2---
    E--0-3-3-0-3-3-0-3-3-0-3-0-3-4-5---
    
    e----------------------------------
    B----------------------------------
    G----------------------------------
    D----------------------------------
    A--2-2-2-2-2-2-2-2-2-2-2-2-2-1-0---
    E--0-3-3-0-3-3-0-3-3-0-3-0---------
    
    (con el riff de la intro)
    La pirotecnia en un excusado
    Corpiños en la valla del final de acción
    Corpus sudado, vaselina, termo fría
    Alguien a lo bonzo bailotea
    Te reconozco sobre los hombros de un pony
    
  • +
    ¡Colabora con nosotros!
    Envíanos tu versión de esta canción

Letra de El baile de Odín
(con el riff de la intro)
La pirotecnia en un excusado
Corpiños en la valla del final de acción
Corpus sudado, vaselina, termo fría
Alguien a lo bonzo bailotea
Te reconozco sobre los hombros de un pony
Chispas en la risa de los brackets
Pulpa de mango chorrea por tu boca
Freno las encías para no comerte
Soy tu admirador pero no tengo principios
Necesito, después de ver, poder tocar
(con el riff de la intro)
Salgo de patrulla con mi antorcha por la fiesta
Sigo el hilo luminoso de tu tanga
Máscara de gas puesta como contraseña
Comunicación injerta en chip transmisor
Te encuentro desnuda sobre un pony emitiendo protoplasma y noctilucas
Curva de la muerte, somos de la misma especie
Te voy a dar hasta que agarres ritmo
Soy tu admirador pero no tengo principios
Necesito, después de ver, poder tocar
Tras el rumor de una ciudad y como un plano que se inclina a su lado
Van cayendo todos juntos uno sobre otros Y fue así como terminamos pegados
Tras el rumor de la ciudad y como un plano que se inclina a su lado
Van cayendo todos juntos uno sobre otros Y fue así como terminamos pegados
Tras el rumor de una ciudad y como un plano que se inclina a su lado
Van cayendo todos juntos uno sobre otros Y fue así como terminamos pegados
Tras el rumor de la ciudad y como un plano que se inclina a su lado
Van cayendo todos juntos uno sobre otros Y fue así como terminamos pegados




[El baile de Odín chords][El baile de Odín cifra]
© LaCuerda.net · aviso legal · privacidad · es · en · pt · contacto
DINAMICO