Acordes de Guitarra » A »Aterciopelados » Canción Protesta (Tab)

Canción Protesta
Aterciopelados

Letras, Acordes y Tabs para Guitarra, Bajo y Ukulele

  •       E5       A5        E5               D5
    e-------------------------------------------
     ---------7/6-----------------9-9-9--7/6----
     --------------6--------------------------6-
     -5/7-7--------------5/7-7------------------
     -------------------------------------------
     -------------------------------------------
    [el símbolo "/"  hace referencia a un ligado o ligadura]
    
    E5           A5
     contra los tala bosques
    E5           D5
     Contra los arma guerras
    E5           A5
     Contra los caza patos
    E5           D5
     Contra los baja nota
    
    
    CORO
    
  •          Bm/E      A         Bm/E            A
    
     --------7---------5-----------7-------------5-
     --------7---------5-----------7-------------5-
     --------7--7p6----6-----------7--9-9-9p7p6--6-     Riff 1
     -6h7-9--------7---7----6h7-9------------- 7-7-
     --------7---------------------7---------------
     ----------------------------------------------
    
            Bm/E       A          Bm/E           A
    
     --------7---------5-----------7-------------5-
     --------7---------5-----------7-------------5-
     --------7--7p6----6-----------7--9-9-9p7-6--6-     Riff 2
     -6h7-9--------7-- 7----6h7-9----------------7-
     --------7---------------------7---------------
     ----------------------------------------------
                                                             h=Hammer on p=Pull off
    
    
    
  • +
    ¡Colabora con nosotros!
    Envíanos tu versión de esta canción

Letra de Canción Protesta
[el símbolo "/" hace referencia a un ligado o ligadura]
contra los tala bosques
Contra los arma guerras
Contra los caza patos
Contra los baja nota
Suena otra canción protesta
Pero no la llamen terrorista
No es que sea antipatriota
Es que traigo otro punto de vista
[RIFF 1]
Contra los fumiga parques
Contra los rompe ozono
Contra los rascacielos
Contra los mala vibra.
Suena otra canción protesta
Pero no la llamen terrorista
No es que sea antipatriota
Ni que traiga mecha y dinamita
Interludio
Violeta yee
marley yee
gallinazus yee
lennon oyee
Silvio yee
manu chau yee
victor jara yee
ali primera oyee
Mercedes yee
Joan baez yee
Pablo yee
león Gieco oyee
Eliana yee
Ruben Blades yee
Serrat yee
Nacimiento oyee
Bob Dylan yee
Soledad yee
Heredia yee
Atahualpa oyee
Suena otra canción protesta
Pero no la llamen terrorista
No es que sea antipatriota
Es que traigo otro punto de vista.
consultas: jdrb22@hotmail.com
esta es una buena canción
se recomienda
juandieguito
http://phigienico.blogspot.com/




[Canción Protesta chords][Canción Protesta cifra]
© LaCuerda.net · aviso legal · privacidad · es · en · pt · contacto