Acordes de Guitarra » A »Antologia » Volveré (Tab)

Volveré
Antologia

Letras, Acordes y Tabs para Guitarra, Bajo y Ukulele

  • ----------------------------------------------------
    Salud0s desde perú para todo el múndo que pasa por esta
    página soy Brian . saludos.
    ----------------------------------------------------
    CLIK EN CALIDA.
    GRACIAS
    -----------------------------------------------------
    
    NOTAS:   cuerdamas aguda..eBGDAE..cueerda mas grave.
    A/F---------------------- 022201  ------------------
    E------------------------ 001220  ------------------
    Ddee4-------------------- 077700  ------------------
    F#m7--------------------- 252442  ------------------
    Bm----------------------- 23442X  ------------------
    Bm7---------------------- 23242X  ------------------
    
    
    
    F#m7        A/F
    Volveré por ti
    
  • FA#m        LA
    Volveré por ti
                  MI
    le dije al partir
                RE  MI           FA#m
    con una canción escrita para ti
    
              LA
    Y tu al mirarme
                MI
    se que lloraras
                 RE  MI           FA#m
    pues tu corazón no me olvidara...
    
    
    Coro
    
           LA
    Y volveré
                                                     MI
    
  • AFINACION: E B G D A E  (Standard)
    
    INTRO
    e)-----------9v----------|-------------------------|
    B)----9-10-12--12-10-9---|-----9-10-12v--10-9------|
    G)-11-----------------9v-|-9-11-------------9-11v--|
    D)-----------------------|-------------------------|
    A)-----------------------|-------------------------|
    E)-----------------------|-------------------------|
    
    e)------------------------|
    B)------------------------|
    G)--------2-4-2-----------|
    D)-----2-4-----4-2--------|
    A)--2-4-----------4-2-4---|
    E)---------------------2--|
    
    Volveré por ti
    FA#m          LA
    le dije al partir.
    
  • e/--------------9v----------|----------------|
    B/-------9-10-11--12-10-9---|-10-12v-10-9----|
    G/---9-11----------------9v-|----------10-12-|
    D/--------------------------|----------------|
    A/--------------------------|----------------|
    E/--------------------------|----------------|
    
    e/-----------------|------------------------|----------------------|
    B/-12-14-12-10-9---|-----9-10-12-10-9-------|----------------------|
    G/--------------9v-|-9-11------------9-11v--|-------2-4-2----------|
    D/-----------------|------------------------|----2-4-----4-2-------|
    A/-----------------|------------------------|-2-4-----------4-2-4--|
    E/-----------------|------------------------|--------------------2-|
    
    Volveré por ti
    FA#m        LA
    le dije al partir.
            MI
    Con una canción escrita para ti.
       FA#m        RE           FA#m
    
  • +
    ¡Colabora con nosotros!
    Envíanos tu versión de esta canción

Letra de Volveré
Salud0s desde perú para todo el múndo que pasa por esta
página soy Brian . saludos.
CLIK EN CALIDA.
GRACIAS
NOTAS: cuerdamas aguda..eBGDAE..cueerda mas grave.
Volveré por ti
le dije al partir
con una canción escrita para ti
Y tu al mirarme
se que lloraras
pues tu corazón no me olvidara...
Y volveré
abrazarte muy fuerte a mi pecho y fundirme en tu piel
Me hundiré en tus brazos, en tus tiernos brazos rendido de amor
y te amare, y te amare...
2da nueva parte:
Volveré por ti
le dije al partir
con una canción escrita para ti
Y tu al mirarme
se que lloraras
pues tu corazón no me olvidara...
Y volveré.......
abrazarte muy fuerte a mi pecho y fundirme en tu piel
Me hundiré en tus brazos, en tus tiernos brazos rendido de amor
y te amare, y te amare...




[Volveré chords][Volveré cifra]
© LaCuerda.net · aviso legal · privacidad · es · en · pt · contacto