Acordes de Guitarra » A »Antologia » Palomita cuculi (Tab)

Palomita cuculi
Antologia

Letras, Acordes y Tabs para Guitarra, Bajo y Ukulele

  •   F#m                       A                   Bm
    Cuando el amor se termina y el corazon se marchita
                        C#m                       Bm
    uno no sabe si perder tus dudas se hacen realidad te
                              F#m  E
    encuentras solo al despertar  hay hayayayay
     F#m                  A                       Bm
    anoche no pude dormir en mis sueños estabas tu
                           C#m                       Bm
    y ese perfume se inpergno en los silencios del dolor
                         F#m    E
    y no lo pude sentir mas   hay hayayayay               
     D       A       E 
    hayayay palomita cuculi 
     D       A        E
    hayayay ojitos de capuli
     A                      Bm                C#m
    canta conmigo guitarra llora conmigo cuculi 
                        Bm                     F#m   E
    aurea tu alas para mi y dime por donde andaras  hayayay
    
  • F#m
    Guitarra
    F#m E F#m E A Bm C#m Bm F#m
    E F#m E F#m
    
    Cuando el amor se termina
                       E    F#m
    El corazón se marchita
    A                    Bm
    Como uno sabe si creer
                        C#m
    Tus dudas se hacen realidad
                             Bm
    Te encuentras solo al despertar
                                 F#m
    Ayayayay
    E     F#m
    
    Anoche no pude dormir
               E       F#m
    
  • ---------------------------------------------------------
    Les presento uno de mis mejores pique. debo confesarles
    que el huayno de perú es dificil el pique pero si te sale
    que bién , muy avanzado.
    
    Saludos para Maria eduarda
    y la gente .
    
    
    Cusco-PERÚ
    CLIK EN CALIDAD
     Saludos  2008
    *Stars"
      Antologia:
    --------------------------------------------------------
    
    
    apoyo:
    
    http://www.youtube.com/watch?v=u-vJGPjenSk en todo
    
  •    F#m           A                   Bm    C#m                      Bm
    e)-2-2-4-5-4-5-7-9--9/12-12-9-9-7-7-5-7---7-9-9/12-12-12-14-12-12-9-7-
    B)--2-------------------------------------7-9-------------------------
    G)----------------------------------------7-9-------------------------
    
                      F#m       E       F#m     E       F#m
    e)--7-7-7-9-7-5-4-2-----2-5-4---5-4-2---2-5-7---9-7-5--|
    B)-----------------------------------------------------|
    G)-----------------------------------------------------|
    
       F#m
    e)--------------------14-|
    B)-----------------------|
    G)-------6-4-6-4---------|
    D)-4-6-7---------7-4-----|
    
      F#m
    Cuando el amor se termina ,  A.-7-5-4-2-0--
    A                    Bm
    el corazón se marchita
    
  •    F#m           A                   Bm    C#m                      Bm
    e)-2-2-4-5-4-5-7-9--9/12-12-9-9-7-7-5-7---7-9-9/12-12-12-14-12-12-9-7-
    B)--2-------------------------------------7-9-------------------------
    G)-2-2-4-6-4-5-7-9--9/12-12-9-9-7-7-5-7---7-9-9/12-12-12-14-12-12-9-7-
    D)--2-----------------------------------------------------------------
                      F#m       E       F#m     E       F#m
    e)--7-7-7-9-7-5-4-2-----2-5-4---5-4-2---2-5-7---9-7-5--|
    B)-----------------------------------------------------|
    G)--7-7-7-9-7-5-4-2-----2-5-4---5-4-2---2-5-7---9-7-5--|
    
       F#m
    e)--------------------14-|
    B)-----------------------|
    G)-------6-4-6-4---------|
    D)-4-6-7---------7-4-----|
    
      F#m
    Cuando el amor se termina ,  A.-7-5-4-2-0--
    A                    Bm
    el corazón se marchita
    
  • +
    ¡Colabora con nosotros!
    Envíanos tu versión de esta canción

Letra de Palomita cuculi
Cuando el amor se termina y el corazon se marchita
uno no sabe si perder tus dudas se hacen realidad te
encuentras solo al despertar hay hayayayay
anoche no pude dormir en mis sueños estabas tu
y ese perfume se inpergno en los silencios del dolor
y no lo pude sentir mas hay hayayayay
hayayay palomita cuculi
hayayay ojitos de capuli
canta conmigo guitarra llora conmigo cuculi
aurea tu alas para mi y dime por donde andaras hayayay
oigo muchos pasos atras creo que biene el interior
ahora comprendo que perdi lo que en la vida
mas ame nunca hay dos lagrimas igual hayayayay
hayayay palomita cuculi
hayayay ojitos de capuli
canta conmigo guitarra llora conmigo cuculi
aurea tu alas para mi y dime por donde andaras hayayay.
Espero que les guste la cancion tanto como ami chaooo




[Palomita cuculi chords][Palomita cuculi cifra]
© LaCuerda.net · aviso legal · privacidad · es · en · pt · contacto