Acordes de Guitarra » A »Antologia » Noche (Tab)

Noche
Antologia

Letras, Acordes y Tabs para Guitarra, Bajo y Ukulele

  • E--------9-12-10-9-------------9----------------|
    B--10-12-----------12--9-10-12--12-10-9---9-10--|
    G---------------------------------------11------|
    D-----------------------------------------------|
    A-----------------------------------------------|
    E-----------------------------------------------|
    
    E--------9-12-10-9-------------9--------------------10h12-|
    B--10-12-----------12--9-10-12--12-10-9---9-10---10-------|
    G---------------------------------------11-----11---------|
    D---------------------------------------------------------|
    A---------------------------------------------------------|
    E---------------------------------------------------------|
    
    LA                 DO#m
    Noche, tu que comprendes
           SIm        LA         MI
    mi tristeza y también mi soledad. Aha...
    LA               DO#m
    Dile a las estrellas
    
  • A             E            Bm
    y tambien mi soledad
    A              E
    Dile a las estrellas que no es tiempo
    A             E            Bm
    
    que mi amada se marcho, un recuerdo me dejo
    D      A             E
    y yo no puedo olvidarla
     Bm               F#m
    que mi amada se marcho, un recuerdo me dejo
    D      A             E
    y yo no puedo olvidarla
     Bm               F#m
    
    Como la mañana que al mirarme sonreiste
    A                  E
    y mi vida se alegro
          Bm      F#m
    Como la mañana que al mirarme sonreíste
    
  • F#mdee4--------022440----------
    LAS DEMAS AQUI:http://bis.lacuerda.net/Recursos/acordes/
    SALUDOS DESDE EL CUSCO´PERÚ
    --------------------------------------------------------
    SALUDOS PARA LISBETH
    --------------------------------------------------------
    NO SE OLVIDEN HACER CLIK EN CALIDAD
    
    
    A/F                 C#m7
    Noche, tu que comprendes
           Bm        A/F         E/G
    mi tristeza y también mi soledad. Aha...
    A/F               C#m7
    Dile a las estrellas
                Bm
    que no es tiempo
    A/F
    que mi amada se marchó
               C#m7
    
  • LA              MI             SIm
    y también mi soledad ha...
         FA#m       MI
    dile a las estrellas que no es tiempo
    LA           MI                     SIm
    
    1 que mi amada se marcho
            DO#m
    un recuerdo me dejo
         SIm
    y hoy no puedo... olvidarla (BIS)
                        FA#m    (MI)
    
    2 Como la mañana que al mirar
      LA                  MI
    me sonreíste y mi vida se alegro...   [BIS]
                  SIm           FA#m   MI
    
    Repite: Todo
    
    
  • ESTA ES LA INTRODUCCION DE LA MEJOR CANCION DE ANTOLOGIA
           \
    	E|--5--7--9--12--10--9--7----4--5--7--9--7--5--4--2--4--5--
    	B|---------------------------------------------------------
    	G|---------------------------------------------------------
    	D|---------------------------------------------------------
    	A|---------------------------------------------------------
    	E|--5--7--9--12--10--9--7----4--5--7--9--7--5--4--2--4--5--
    	/
    
    
    	\
    	E|--5--4--5--7--9--7--
    	B|--------------------
    	G|--------------------
    	D|--------------------
    	A|--------------------
    	E|--5--4--5--7--9--7--
    	/
    
    
    	\
    	E|--5--7--9--12--10--9--7----4--5--7--9--7--5--4--2--4--5--
    	B|---------------------------------------------------------
            G|---------------------------------------------------------
    	D|---------------------------------------------------------
    	A|---------------------------------------------------------
    	E|--5--7--9--12--10--9--7----4--5--7--9--7--5--4--2--4--5--
    	/
    
    	
  • +
    ¡Colabora con nosotros!
    Envíanos tu versión de esta canción

Letra de Noche
y tambien mi soledad
Dile a las estrellas que no es tiempo
que mi amada se marcho, un recuerdo me dejo
y yo no puedo olvidarla
que mi amada se marcho, un recuerdo me dejo
y yo no puedo olvidarla
Como la mañana que al mirarme sonreiste
y mi vida se alegro
Como la mañana que al mirarme sonreíste
y mi vida se alegro
(Se Repite todo de nuevo)
********///////******//////*****///////*******////////
Un saludo a todos espero que les agrade la cancion
Y si desean el SOFTWARE para sacar acordes utilizando
UNA PC; Enviarme un correo a:
jccutipa@hotmail.com
Un amigo para servirles 'SALIM'
********///////******//////*****///////*******////////




[Noche chords][Noche cifra]
© LaCuerda.net · aviso legal · privacidad · es · en · pt · contacto