Acordes de Guitarra » A »Antologia » Niña (Tab)
  • Letra y Acordes
     D
    Lejos de ti solo estoy
     A
    Luchando por nuestro amor
     G                     F#m    Bm
    Para enfrentarle a la vida….niña
     D   Em                F#   Bm
    Ay  para enfrentarle a la vida
    
    PUNTEO: (REPIQUE)/B/Em/F#/Bm/
    
     D
    No pienses que me olvide
     A
    De las promesas de amor
     G                 F#m    Bm
    Que nos hicimos un día …niña
     D   Em             F#  Bm
    ay  que nos hicimos un día
    
    
  • Letra y Acordes
       LAm - DO      
             Lejos de ti solo estoy 
             SOL  
            luchando por nuestro amor 
             FA                      MI  LAm
            para enfrentarle a la Vida, Niña.
    
             DO   SOL FA                    MI LAm         
            Ah ah ay para enfrentarle a la vida (Bis)
    
       LAm - DO
            No pienses que me olvide 
             SOL
             de las promesas de amor 
             FA                  MI  LAm
            que nos hicimos un dia, Niña.
    
             DO   SOL FA                  MI LAm
            Ah ah ay que nos hicimos un dia (Bis)
    
    
  • Tablatura
     D       A        D      A
    Lejos de ti solo estoy   Luchando por nuestro amor
    ---------------------------4/5--5-5-7--7h5-4--5---
    --7/10-10-7-7h5-3-5-7-----------------------------
    --------------------------------------------------
    --------------------------------------------------
    --------------------------------------------------
    --------------------------------------------------
    
     G                         F#m           Bm
    Para enfrentarle A LA vida              ni-ña
    
    ------------------------2-----2----0h2--------------|
    --2/3--3--3--5--3-2-3-----2--2-2-2----------2-------|
    --3/4--4--4--4--4-3-4------2----2-------2-4----4----|
    ----------------------------------------------------|
    ----------------------------------------------------|
    ----------------------------------------------------|
    
     D
    
  • Tablatura
                               RE      LA 
    1)-14/17-17-14--14^10-10-12-12^14--|-14^12-12-12--14-14^12-11-12--|
    2)---------------------------------|------------------------------|
    3)---------------------------------|------------------------------|
    4)---------------------------------|------------------------------|
    5)---------------------------------|------------------------------|
    6)-----------------------------(1)-|--------------------------(2)-|
    
        SOL                       FA#    SI                     RE 
    1)-12^10-10-10-12--12^10-9-10-10^9--|------9---|------9-10-12-12/14---|
    2)----------------------------------|----11-12-|-10-12----------------|
    3)----------------------------------|--11------|----------------------|
    4)----------------------------------|----------|----------------------|
    5)----------------------------------|----------|----------------------|
    6)------------------------------(3)-|------(4)-|------------------(5)-|
    
                               SIm
    1)---12------12--14--10--9--10^9------|
    2)-----12--12--------------------12---|
    3)-------12---------------------------|
    
  • +
    ¡Colabora con nosotros!
    Envíanos tu versión de esta canción

Letra de Niña
Lejos de ti solo estoy
luchando por nuestro amor
para enfrentarle a la Vida, Niña.
Ah ah ay para enfrentarle a la vida (Bis)
No pienses que me olvide
de las promesas de amor
que nos hicimos un dia, Niña.
Ah ah ay que nos hicimos un dia (Bis)
Como quisiera jugar
con tus cabellos estar
en tus recuerdos hoy dia, Niña.
Ah ah ay en tus recuerdos hoy dia (Bis)
No pienses que me olvide
de las promesas de amor
que nos hicimos un dia, Niña.
Ah ah ay que nos hicimos un dia (Bis)
*************************************
* Cualquier Consulta escribir a *
* Jitosa@usa.net [.)(.] *
* Jimmy Tovar Sanchez *
* Cusco - Peru [FNST] *
*************************************
_/ _/
_/ _/
_/_/ _/
_/ _/ _/ _/_/_/_/ _/_/_/_/ _/_/_/_/ _/ _/_/
_/ _/ _/ _/ _/ _/ _/ _/ _/
_/ _/ _/ _/ _/ _/_/_/_/ _/ _/
_/ _/ _/ _/ _/ _/ _/_/_/_/
_/ _/ _/ _/ _/_/_/_/ _/_/_/_/ _/ _/
_/ _/ _/
_/ _/ JIMMY TOVAR SANCHEZ _/ _/
_/_/ CUSCO - PERU _/ _/
_/ Jitosa@usa.net _/



© LaCuerda.net · aviso legal · privacidad · contacto