Acordes de Guitarra » A »Almafuerte » Mi Credo (Tab)

Mi Credo
Almafuerte

Letras, Acordes y Tabs para Guitarra, Bajo y Ukulele

  • E |--7-----7-----7-----7-------|--2-----2-----2-----2-------|
    B |-----0-----0-----0-----0----|-----0-----0-----0-----0----|
    G |----------------------------|----------------------------|
    D |----------------------------|--4-----4-----4-----4-------|
    A |----------------------------|----------------------------|
    E |----------------------------|----------------------------|
    
    
      |--3-----3-----3-----3-------|--2-----2-----2-----2-------|
      |-----0-----0-----0-----0----|-----0-----0-----0-----0----|
      |----------------------------|----------------------------|
      |--2-----2-----2-----2-------|--0-----0-----0-----0-------|
      |----------------------------|----------------------------|
      |----------------------------|----------------------------|
    
    
      |--7-----7-----7-----7-------|--7-----7-----7-----7-------|
      |-----0-----0-----0-----0----|-----0-----0-----0-----0----|
      |----------------------------|----------------------------|
      |----------------------------|----------------------------|
    
  • E ||--7-----7-----7-----7-----|--2-----2-----2-----2-----||
    B ||--0--0--0--0--0--0--0--0--|-----0-----0-----0-----0--||
    G ||--------------------------|--4-----4-----4-----4-----||
    D ||--------------------------|--4-----4-----4-----4-----||
    A ||--------------------------|--------------------------||
    E ||--------------------------|--------------------------||
    
    
    E ||--3-----3-----3-----3-----|--2-----2-----2-----2-----||
    B ||-----0-----0-----0-----0--|-----0-----0-----0-----0--||
    G ||--4-----4-----4-----4-----|--4-----4-----4-----4-----||
    D ||--5-----5-----5-----5-----|--4-----4-----4-----4-----||
    A ||--------------------------|--------------------------||
    E ||--------------------------|--------------------------||
    
    
    E ||--7-----7-----7-----7-----|--7-----7-----7-----7-----||
    B ||--0--0--0--0--0--0--0--0--|--0--0--0--0--0--0--0--0--||
    G ||--------------------------|--------------------------||
    D ||--------------------------|--------------------------||
    
  • MI:--7-7-7-7--2-2-2-2--3-3-3-3--2-2-2-2--7-7-7-7-7-7-7-7-]
    Si:---0-0-0-0--0-0-0-0--0-0-0-0--0-0-0----0-0-0-0-0-0-0--]
    Sol:-----------------------------------------------------]
    Re:-----------4-4-4-4--2-2-2-2--0-0-0-0------------------]
    La:------------------------------------------------------]
    Mi:------------------------------------------------------]
    
    Intro (2da parte)
            Bm      F#m      G     Em9
    Mi:-----2-------2--------3-----0------
    Si:--3--3-2--2--2--------3-----0------
    Sol:--4-4--4--2-2-4-2-4--4-2-0-0-0----
    Re:-----4-------4------5-5-----4--2-0-
    La:--2--2-------4--------5-----2------
    Mi:-----2----2--2-----3--3-----0------
    
         Bm       A       G
    -----2--------0-------3-3-3-3-3-3-]
    --3--3-2--2-0-2-0--0--3-3-3-3-2-2-]
    ---4-4--4-2---2--2--0-0-0-0-0-0-0-]
    
  • +
    ¡Colabora con nosotros!
    Envíanos tu versión de esta canción

Letra de Mi Credo
COMIENZA GUITARRA
MIENTRAS HACE ESTO
De ayer venimos, guitarra y voz
soñando siempre la mejor canción
estoy creído, difundirán
radios AM de la ciudad central.
Creí que iba a poder, creí en la verdad
creí de fijo que no me iban a fallar
lo que la gente cree, yo creí también
creí en todo lo que hay que creer.
Creí en el amor, creí en la amistad
creí que fuerza no me iba a faltar
de todo lo creído me creí saber
que todo es, creer o no creer.
Creí que lo prestado, me iban a devolver
creyendo en ella, creyendo en el
vengo creyendo en el dios vivo
que tus hijos son iguales a los míos
¡Oh no! ¡Por dios!
Creí también poder folclorear
un parecer bien nacional
en la tarde de mis cosas, añape´e Dicepolin
ya sin mas.
He creído en tantas cosas
¡Ay, ay, ay! de mí
me cacho en diez
que gil que fui.




[Mi Credo chords][Mi Credo cifra]
© LaCuerda.net · aviso legal · privacidad · es · en · pt · contacto