Acordes de Guitarra » A »Almafuerte » Toro y pampa (Tab)

Toro y pampa
Almafuerte

  • Tablatura
    e|-----
    B|-----
    G|--9--
    D|--9--
    A|--7--
    E|-----
    
    
    Intro 1ºparte
    e|-------0-------0---0-----------2-------------
    B|---------4-2-4-------------4-5---5-4-5p4-2---
    G|-----------------4-------4-----------------4-
    D|-----2-----------------4---------------------
    A|---2-----------------2-----------------------
    E|-0-------------------------------------------
    
    cont.
    ------0-------0---0-----------2-|
    --------4-2-4-------------4-5-0-|
    ----------------4-------2-------|
    
  • Tablatura
    e|-------------------------------------------------------|
    B|-------------------------------------------------------|
    G|----------9--8--6--8h9---9----------8-9-/11--9-8h9h8---|
    D|--------9--------------9----------9------------------9-|
    A|------7--------------------------9---------------------|
    E|----0--------------------------7-----------------------|
    
    e|----------------------------------------------------|
    B|----------------------------------------------------|
    G|----------9--8--6--8h9---9----------8-9-/-11--------|
    D|--------9--------------9----------7------9----------|
    A|------7-------------------------9-------------------|
    E|----0-------------------------7---------------------|
    
    
    e|-----------------------------------------------------------------|
    B|-------11/12--14------------------11/12--14----------------------|
    G|----9----------------11/13------9-------------11b13-11h9h11------|
    D|--9---------------------------9-----------------------------11---|
    A|-----------------------------------------------------------------|
    
  • +
    ¡Colabora con nosotros!
    Envíanos tu versión de esta canción

Letra de Toro y pampa
cont.
cont.
Con “Toro y pampa”
armé la impronta,
iluminando así el costado imaginario
del encuentro.
Vengo rockeando
desde hace tiempo,
soñando siempre una canción para animarte
y darte aliento.
La melodía quiere llevar
lo bueno y lindo de estar contento.
Un buen descanso
un plato e´sopa
y el abrazo fraternal de un amigo leal a voz
te están faltando.
Para que de un salto
dejes la falopa
y el emputecido berretín de andar limándote
en la caja negra.
Día domingo lejos de la ciudad
bajo el sol compartiendo entre amigos
carne azada, pan, agua y vino,
toro y pampa es.
(el resto del solo kedo por sacar)
Hijos del brazo
nunca torcido
de donde nace esa intención tan tonta de andar
tele-vareando.
Pibin del barrio
donde nacido
Mira a tu lado, todos, todos nos fuimos ya
vos no te quedes.
Día domingo lejos de la ciudad
bajo el sol compartiendo entre amigos
carne azada, pan, agua y vino,
toro y pampa es.
Final como 2ºintro...



© LaCuerda.net · aviso legal · privacidad · contacto