Acordes de Guitarra » A »Almafuerte » Convide rutero (Tab)

Convide rutero
Almafuerte

Letras, Acordes y Tabs para Guitarra, Bajo y Ukulele

  • Intro  F#m-E-A  D  F#m-E
           F#m-E-A  D  F#m-E
           F#m-E-A
    
    F#m          E            D    Bm
       Escucho a las rutas llamarme,
    F#m          E                D        Bm
       son voces graves que me invitan a rodar.
    G                  F#m       E             D     Bm          E
     Dicen extrañar mi errante andar., pedal a fondo..  tierra adentro.
    
    F#m         E           D    Bm
       Sueños invaden mi descanso,
    F#m       E         D         Bm
       con su carga de convide rutero.
    G                      F#m            E         D         Bm             E
     Atravesar los amplios llanos, por llegar, a ningún lugar.. como hace el viento
    
              F#m      A  D  F#m-E
    Quieren volverme a ver,
    
  •      F#m  E  A                                    F#m  E  A
    e:-(-2----0--0-------------------------------)----2----0--0--------0---------------------
    B:-(-2----0--2--------2-3-2------------2-----)----2----0--2------2-----------------------
    G:-(-2----1--2----2-4-------4------2-4---4---)x2--2----1--2----2-------------------------
    D:-(-4----2--2--4--------------2-4-----------)----4----2--2--2---------------------------
    A:-(-4----2--0-------------------------------)----4----2--0------------------------------
    E:-(-2----0----------------------------------)----2----0---------------------------------
    
    F#m          E            D    Bm
      Escucho a las rutas llamarme                       Nota:  luego del D en "escucho a las
    F#m           E              D        E:-5-4-2-0--   rutas llamarme" y "pedal a fondo..."
      son voces graves que me invitan a rodar            antes del Bm hace un fill así
    Bm          G          F#m     E                          Fill 1=  A:-5-4-2--
      dicen extrañar mi errante andar                           También antes del G en "dicen
             D     Bm         E                          extrañar..." hace otro así
    pedal a fondo... tierra adentro                           Fill 2=  E:-0-2-3--
    
    Sueños invaden mi descanso
    con su carga de convide rutero
    atravesar los amplios llanos por llegar
    
  •      F#m  E  A                                    F#m  E  A
    e-2----0--0----0---------------------------------)----2----0--0------0
    B-2----0--2----2---------3---2-0-----------2-----)----2----0--2-----2-
    G-2----1--2---------------------------2-4-----4--)x2--2----1--2----2--
    D-4----2--2--------------0-------2-4-------------)----4----2--2---2---
    A-4----2--0------0-2-4-0-------------------------)----4----2--0-------
    E-2----0-----------------------------------------)----2----0----------
    
    F#m          E            D    Bm
      Escucho a las rutas llamarme
    F#m           E              D           E:-5--4--2-4-2---
      son voces graves que me invitan a rodar --------------5-
    Bm          G          F#m     E
      dicen extrañar mi errante andar
             D     Bm         E
    pedal a fondo... tierra adentro
    
    Sueños invaden mi descanso
    con su carga de convide rutero
    atravesar los amplios llanos por llegar
    
  •   F#m   E  A                        F#m E          F#m E  A
    -2-2-2--0--0-------------------------2--0--        -2--0--0--------0--
    -2-2-2--0--2-----------3-2-0---------2--0--        -2--0--2----0------
    -2-2-2--1--2---------------------2-4-2--1--  X2    -2--1--2--2---2----
    -4-4-4--2--2-----------------2-4--------2--        -4--2--2-----------
    -4-4-4--2--0--0-2-4-0-------------------2--        -4--2--0-----------
    -2-2-2--0--0----------------------------0--        -2--0--0-----------
    
    F#m        E            D     Bm
    Escucho a las rutas llamarme
    F#m         E              D        (riff1)      (riff1):
    son voces graves que me invitan a rodar,         -3/5-4-2-4-2-0------
    Bm        G         F#m       E                  --------------------
    dicen extrañar mi errante andar                  --------------------
             D   Bm         E                        --------------------
    pedal a fondo, tierra adentro.                   --------------------
                                                     --------------------
    
    F#m       E           D    Bm
    Sueños invaden mi descanso
    
  • Si necesitas una tab en especial escríbeme...
    
    http://www.myspace.com/alejandrolauyola
    
                                         E  S S E  E  Q    S S S S
    G||-------|-------|-------|-------|----------------------------|
    D||-------|-------|-------|-------|----------------------------|
    A||-------|-------|-------|-------|---------------0----0-2-4-0-|
    E||-------|-------|-------|-------|--2--L-2-2--0---------------|
    
    
      E  S S E  S S S S E  Q       E  S S E  E  Q    S S S S
    ----------------------------|----------------------------|
    ----------------------------|----------------------------|
    --5--L-4-2------0-2-4--2----|---------------0----0-2-4-0-|
    ------------0-2-------------|--2--L-2-2--0---------------|
    
    
      E  S S E  S S S S E  Q       Q    Q    H           H
    ----------------------------|---------------------|-----------|
    ----------------------------|---------------------|-----------|
    --5--L-4-2------0-2-4--2----|------------0--------|--L--------|
    ------------0-2-------------|--2----0-------
  • +
    ¡Colabora con nosotros!
    Envíanos tu versión de esta canción

Letra de Convide rutero
Escucho a las rutas llamarme,
son voces graves que me invitan a rodar.
Dicen extrañar mi errante andar., pedal a fondo.. tierra adentro.
Sueños invaden mi descanso,
con su carga de convide rutero.
Atravesar los amplios llanos, por llegar, a ningún lugar.. como hace el viento
Quieren volverme a ver,
es por eso que están llamándome.
Sin rumbo fijo hacia delante voy,
andar andando solo andando por andar.
Llevar mi vida acelerando sin pensar en regresar, o en detenerme.
Escucho a las rutas llamarme,
y su motivo viste a mi decir sincero.
El que afirmado sera por quienes por ahí me vieron pasar, o por aquellos
que andando me han de ver.
si consigo llenar el tanque
responderé al llamado..
si lo quiere mi suerte..
como otras veces antes..
siendo quien siente.
partiré...
Nazareno Joaquin/ Maradona_larenga@hotmail.com
Quieren volverme a ver, es por eso que están llamándome..




[Convide rutero chords][Convide rutero cifra]
© LaCuerda.net · aviso legal · privacidad · es · en · pt · contacto