Acordes de Guitarra » A »Alex Ubago » Ahora que no estás (Tab)

Ahora que no estás
Alex Ubago

  • Letra y Acordes
    Intro: (E,B,D,A) x2
          (E,B,D,A,B4)
           E                         F#m7
    a)Ahora que no estás, los arboles del parque
              A            B
      Juraron no crecer
              E            B
      Hasta que vuelvas.
    
    
                   E                         F#m7
      Porque ahora que no estás, no pueden escaparse
                A              B
      Contigo a esos lugares
           E                 B       G#m
      Donde sueñan.
    
    
                 C#m
    b)Pero al llegar la noche
    
  • Tablatura
       E                     B
    E|-----------------7---|-----------------9---|
    B|---9---9---9---9---9-|---7---7---7---7---7-|
    G|-9---9---9---9-------|-8---8---8---8-------|
    D|---------------------|---------------------|
    A|---------------------|---------------------|
    E|---------------------|---------------------|
    
       D                     A
    E|-----------------5---|-----------------7---|
    B|---7---7---7---7---7-|---5---5---5---5---5-|
    G|-7---7---7---7-------|-6---6---6---6-------|
    D|---------------------|---------------------|
    A|---------------------|---------------------|
    E|---------------------|---------------------|
    
       E                     B
    E|-----------------7---|-----------------9---|
    B|---9---9---9---9---9-|---7---7---7---7---7-|
    G|-9---9---9---9-------|-8---8---8---8-------|
    
  • +
    ¡Colabora con nosotros!
    Envíanos tu versión de esta canción

Letra de Ahora que no estás
a)Ahora que no estás, los arboles del parque
Juraron no crecer
Hasta que vuelvas.
Porque ahora que no estás, no pueden escaparse
Contigo a esos lugares
Donde sueñan.
b)Pero al llegar la noche
Todo cambia,
Escucho esas voces
Son amenazas.
c)¿Qué pasa ahora?
no entiendo nada,
He visto sombras
Que me alcanzaban.
ESTRIBILLO:
Ahora que no estás, que no te puedo ver,
Las luces del puerto se han apagado.
Ya no hay canciones, tampoco hay versos,
No me preguntes qué me está pasando.
Ahora que no estás, que no te puedo ver,
La isla y los montes se han juntado.
Ya no hay mareas, tan solo espero,
No me preguntes qué esta pasando.
Ahora que no estás, ahora que estás.
a)Ahora que no estás ya no existe el silencio
Y oscuros desierto
Son las calles,
Que ahora que no estás, no pueden escucharte
Quizás a lo lejos
Casi puedo tocarte.
b)Pero al llegar la noche
Todo cambia,
Escucho esas voces
Son amenazas.
c)¿Qué pasa ahora?
No entiendo nada,
He visto sombras
Que me alcanzaban.
Ahora que no estás, que no te puedo ver,
Las luces del puerto se han apagado.
Ya no hay canciones, tampoco hay versos,
No me preguntes qué me está pasando.
Ahora que no estás, que no te puedo ver,
La isla y los montes se han juntado.
Ya no hay mareas, tan solo espero,
No me preguntes qué esta pasando.
Ahora que no estás, ahora que estás.
E7+ (final)



© LaCuerda.net · aviso legal · privacidad · contacto