Acordes de Guitarra » A »Aleks Syntek » Te soñé (Tab)

Te soñé
Aleks Syntek

Letras, Acordes y Tabs para Guitarra, Bajo y Ukulele

  • (A E F#m D A E F#m D A B D Dm)
    
    
    A     E F#m          D            A
    Te soñe, estaba despierto y te mire
        E   F#m            D             A
    Pense soñar pues no crei que fuera real
            B             D         A           D
    Tanta suerte al despertar, y mirarte descansar
      Dm              A E F#m D A E F#m D A
    Segura y junto a mi.
     
         E  F#m             D           A
    Te soñé, y estabas tan bella tan mujer
        E  F#m             D       A
    Pense soñar pues no podia imaginar
           B         D           A
    Que seria de mi vida sin tu amor
    D        Dm
    Sin tu calor.
    
  • A  E  F#m  D
    A  E  F#m  Dm
    A  B  D  Dm
    
    
    
    A       E
      Te soñé
    F#m           D           A      E    F#m
      estaba despierto y te miré, pensé soñar
                 Dm            A
      pues no creí que fuera real
              B             D
      tanta suerte al despertar
          A            D
      y mirarte descansar
        Dm             A
      segura y junto a mí
    
    
    
  • INTRO: A E7 F#m D  A E7 F#m Dm A B7 D Dm 
    
    A         E7 F#m        D           A
    Te soñé,   estaba despierto y te mire
     E7     F#m            Dm             A
    pensé soñar pues no creí que fuera real
            B7           D      C#m        D    
    tanta suerte al despertar y mirarte descansar
       Dm                        A E7 F#m D  A E7 F#m Dm
    segura y junto a mí
    
    A     E7    F#m              D         A
    Te soñé,    y estabas tan bella tan mujer
    E7     F#m            Dm            A
    pensé soñar pues no podría imaginar
    B7               D         C#m        D
    que sería de mi vida sin tu amor
           Dm     
     sin tu calor
    
    
  •    A     E    F#m    D     A     E    F#m   Dm    A    B    D    Dm7
    e--0-----0-----2-----2----------------------5-----0----0----0----0------------
    B--2-----0-----2-----3----------------------6-----2----4----7----6------------
    G--2-----1-----2-----2----------------------7-----2----4----7----5------------
    D--2-----2-----4-----4----------------------7-----2----4----7----7------------
    A--0-----2-----4-----5----------------------5-----0----2----5----5------------
    E--------0--------------------------------------------------------------------
    
    
    
    [VERSO]
    
      A      E [C#7]  F#m         D             S      E    F#m            Dm          A
     -0------0--------2-----------2-------------0------0----2--------------1-----------0------
     -5------5--------2-----------3-------------2------0----2--------------3-----------2------
     -6------4--------2-----------2-------------2------1----2--------------4-----------2------
     -7------6---3----4-----------0-------------2------2----4--------------0-----------2------
     -0------7--------4-------------------------0------2----4--------------------------0------
     --------0--------------------------------------------------------------------------------
        Te soñe,        estaba despierto y te mire, pense soñar pues no crei que fuera real
    
  •   A            E  F#m      D           A         E
    e---9-10-12----------------12-10-------9---12----12------
    b--------------------10-12-------10-12--------12----10---
    g--------------------------------------------------------
    d--------------------------------------------------------
    a--------------------------------------------------------
    E--------------------------------------------------------
    
     F#m        Dm         A   E                    D            Dm
    e----------10-9-------9---------12-12-11-------10-9---------10-9----
    b----10-12------10-12--------10----------12---------10-----10---10--
    g-10----------------------10----------------11---------10-10------10
    d--------------------------------------------------------------------
    a--------------------------------------------------------------------
    E--------------------------------------------------------------------
    
    
    A        E
       te soñé
    
    
  • Intro adaptado para guitarra de esta excelente cancion que solo 
    saque porque le encanta a mi normita, asi que va dedicado a ella.
    Los acordes y la letra ya no los pongo puesto que ya hay 
    publicadas varias versiones.
    
    Saludos desde Cd. Juarez.
    
    intro:
    
    e|--9--9-10-12----------5-7-9-12-10~-5-7-9~-12-----12----------7-10-9-5-7-0~-
    B|-10-10-------10-9-10-------------------------12~----10~-7-10---------------
    G|--9--9---------------------------------------------------------------------
    D|---------------------------------------------------------------------------
    A|---------------------------------------------------------------------------
    E|---------------------------------------------------------------------------
    
    e|----9-12-12-11--------10-9-------10-9--------
    B|-10------------12----------10----10---10-----
    G|------------------11~---------9~--9------10~-
    D|---------------------------------------------
    A|---------------------------------------------
    E|--------------
  • Bueno primero que nada tienes que escuchar muy bien la cancion 
    el tono de esta, esta en A (la mayor) y como sabran las armaduras
    del tono son fa#, do# y sol#, es decir, que todos los fa, do y sol, son sostenidos(#)
    y los acordes llevan un golpeo constante en la parte del intro.
    Bueno empezemos
    
    Intro:
    Mano derecha: abajo
    Mano izquierda: arriba
    
    
    A           E          F#m      D                    A        E      F#m
    do6  do6 re6 mi6  la si la  fa la si mi6 re6  la si do6  mi6 si  mi6 la
    la                                                           sol     fa
    mi
             Dm             A          B               D              Dm
    fa la si re6 do6 la si do6  mi si mi6 re#6 si fa  re6 do6 la fa  re6 do6 la fa(becuadro)
                           la
                           mi
    
    
    Esa es la parte que corresponde al intro, 
    despues la parte de la melodia aqui los acordes
    llevan un ritmo constante por elemplo:
    
    Mano derecha     A  A   E E   F#m  F#m     D D           AA
    Le
  • +
    ¡Colabora con nosotros!
    Envíanos tu versión de esta canción

Letra de Te soñé
Te soñe, estaba despierto y te mire
Pense soñar pues no crei que fuera real
Tanta suerte al despertar, y mirarte descansar
Segura y junto a mi.

Te soñé, y estabas tan bella tan mujer
Pense soñar pues no podia imaginar
Que seria de mi vida sin tu amor
Sin tu calor.
estribillo:
Tuve momentos de profunda soledad
Y ahora no lo creo y junto ti me encuentro
Desesperado, estuve apunto de caer
y apareciste un día llegando hasta mi vida y te soñé.
Te soñe, estaba despierto y te mire
Pense soñar pues no crei que fuera real
Tanta suerte al despertar, y mirarte descansar
Segura y junto a mi.
estribillo:
Tuve momentos de profunda soledad
Y ahora no lo creo y junto ti me encuentro
Desesperado, estuve apunto de caer
y apareciste un día llegando hasta mi vida y te soñé.
estaba despierto y te soñé.
CUALQUIER DUDA YA SABEN QUE HACER...
carlosdavids@hotmail.com O TAMBIEN
silence_leyenda@hotmail.com




[Te soñé chords][Te soñé cifra]
© LaCuerda.net · aviso legal · privacidad · es · en · pt · contacto