Acordes de Guitarra » A »Aleks Syntek » Duele el amor (Tab)

Duele el amor
Aleks Syntek

Letras, Acordes y Tabs para Guitarra, Bajo y Ukulele

  • e----0----- Esto se repite en toda la cancion, 
    B--3---2-0- menos en los coros.
    G----------
    D----------
    A----------
    E----------
    
    
    e-----------7-10---12-7--7-9-7------------------
    B----7-9-10--------------------10-7--------10-7-
    G--------------------------------------9-9------
    D-----------------------------------------------
    A-----------------------------------------------
    E-----------------------------------------------
    
    e-----------7-10---12-7--7-9-7------------7-----
    B----7-9-10--------------------10-7---------10--
    G----------------------------------------9------
    D-----------------------------------------------
    A-----------------------------------------------
    
  • D                     E  F#m
    Siento la humedad, en mí De verte llorar, ni hablar
    D                         E F#m
    Si es que tú te vas, de aquí Creo que a mi me va, sufrir
    D                           E F#m
    Hoy quisiera detener el tiempo La distancia entre los dos
    D                           E F#m
    Pero se apagó la luz del cielo Ya no sale más el sol
    
    D                        E F#m
    Soy fragilidad, sin ti Como superar, el fin
    D                          E     F#m
    Donde es que dañé, no sé Y el recuperar se fue
    D                 E                        F#m
    Ni tú ni yo somos culpables Pero somos vulnerables
    D                 E           F#m            E
    Son las cosas de la vida Que me queda por vivir
    
    Coro:
    D*       E*    C#m             F#m
    
  • E          D      E
    Duele el amor sin ti
    C#m7          Dsus2
    Duele hasta matar
    
    INTRO: Dsus2 2 compases
    
    Solo de INTRO: D - F#m x2
    
    VERSO 1
    D
    Siento la humedad en mí
    F#m
    De verte llorar, ni hablar
    D
    Si es que tú te vas de aquí
    F#m
    Creo que a mí me va sufrir.
    
    VERSO 2
    
  • Dsus2
    E------------------------
    A------------------------
    D------------------------
    G-----2---2---2---2------ X4
    B---3-------2---0--------
    e-------0----------------
    
    Dsus2,F#m X2
    
    Dsus2
    Siento la humedad, en mi
    F#m
    de verte llorar, ni hablar
    Dsus2
    si es que tu te vas, de aqui
    F#m
    creo que a mi me da, sufrir.
    
    Dsus2
    
  • ------0-----------
    --3-------2-0-----
    ----2---2---------
    ------------------
    ------------------   (X4)
    ------------------   
                                        
    
       D - A - F#m - E (x2) 
    
    -----------------11/12------------------------------------
    ----------12-14.-------12.-12-14-12------------10---------
    -11-13-14---------------------------14-11.-9-9---11-------
    ----------------------------------------------------------
    ----------------------------------------------------------
    ----------------------------------------------------------
                      
    -----------------11/12------------------------------------
    ----------12-14.-------12.-12-14-12-----------------------
    -11-13-14---------------------------14-11.-9-9------------
    
  •      D       E      F#m      D*      E*     C#m
    E ---2---/---0---/---2---/---2---/---4---/---4---
    B ---3---/---0---/---2---/---3---/---5---/---5---
    G ---2---/---1---/---2---/---2---/---4---/---6---
    D ---0---/---2---/---4---/---4---/---6---/---6---
    A ---x---/---2---/---4---/---5---/---7---/---4---
    E ---x---/---0---/---2---/---x---/---x---/---x---
    
    Tab key:
    
     s = slide
     b = bend
     r = release
     / = arrastras el dedo desde el traste anterior
         respecto al número que le sigue a este símbolo     
     p = pull off
    
     Despues de esta explicación, aqui está la cancion,
     que para mí suena muy bien. Si tienen correcciones
     o dudas a mi correo.
    
  • |-----0----------------0----------------0----------------0--------|
    |-3-------2---0----3-------2---0----3-------2---0----3-------2---0-|
    |---2---2---2--------2---2---2--------2---2---2--------2---2---2---|
    |------------------------------------------------------------------|
    |------------------------------------------------------------------|
    |------------------------------------------------------------------|
    
    Electrik:
    
    |----------------------------------------------------------------|
    |------------13--15--15/18-----13--15--13------------------------|
    |-12--14--15---------------17--------------15--12---------12--15-|
    |--------------------------------------------------15-15---------|
    |----------------------------------------------------------------|
    |----------------------------------------------------------------|
    
    |---------------------------------------------------------------|
    |------------13--15--15/18-----13--15--13-----------------------|
    |-12--14--15---------------17--------------15--12---------------|
    |-------------------------------------------------15-15---------|
    
  • Inicio/Verso
                 (x9)
    G:---------------------------|
    D:---------------------------|
    A:-5-55--5-55-7-9-99--9-99-7-|
    E:---------------------------|
    
    Pre-Coro
    Son las cosas de la vida...
    |-------------------------------|
    |-------------------------------|
    |-5-55--5-55-7-9-99-4/5-9-7-5/4-|
    |-------------------------------|
    
     Coro
    Duele el amor sin tí...
             (x3)              (x1)
    G:----------------------||----------|
    D:----------------------||----------|
    A:5-55--7-77--7-77-9-77-||5-55-5-55-|
    E:----------------------||----------|
    
    
              Verso   (x1)
    G:---------------------------|
    D:---------------------------|
    A:-5-55--5-55-7-9-99--9-99-7-|          x3
    E:---------------------------|
    
    G:--------------------------------|
    D:--------------------------------|
    A:-5-55--5-55-7-9-99—-9/12-10-9-7-|       x1
    E:--------------------------------|
    
    G:----------------------------------|
    D:----------------------------------|
    A:-5-55--5-55-7-9-99—-9/8-7-6-9-8-7-|      x1
    E:-------------
  • +
    ¡Colabora con nosotros!
    Envíanos tu versión de esta canción

Letra de Duele el amor
Siento La Humedad, En Mí,
D' Verte Llorar, Y Hablar,
Si Es Q' Tu Te Vas, D' Aqui
Creo Q' A Mi Me Hará, Sufrir.
Hoy Quisiera Detener El Tiempo
Y La Distancia Entre Los Dos
Pero Se Apagó La Luz Del Cielo
Ya No Sale + El Sol
Soy Fragilidad, Sin Ti
Como Superar, El Fin
Cosas Q' Dañe, No Se
Y El Recuperar, Se Fue
Ni Tu Ni Yo Somos Culpables,
Pero Somos Vulnerables,
Son Las Cosas D' La Vida
Q' Me Queda X Vivir
Duele El Amor, Sin Ti
Duele Hasta Mojar
Duele El Amor, Sin Ti
Duele Hasta Matar
Duele El Amor, Sin Ti
Todo Esta Tan Gris
Hoy Quisiera Detener El Tiempo La Distancia Entre Los Dos
Pero Se Apagó La Luz Del Cielo
Ya No Sale + El Sol
Soy Fragilidad, Sin Ti
Como Superar, El Fin
Cosas Q' Dañe, No Se
Y El Recuperar, Se Fue
Ni Tu Ni Yo Somos Culpables,
Pero Somos Vulnerables,
Son Las Cosas D' La Vida
Q' Me Queda X Vivir
Siento La Humedad, En Mí,
D' Verte Llorar, Y Hablar,
Si Es Q' Tu Te Vas, D' Aqui
Creo Q' A Mi Me Hará, Sufrir.
Siento La Humedad, En Mí,
D' Verte Llorar, Y Hablar,
Si Es Q' Tu Te Vas, D' Aqui
Creo Q' A Mi Me Hará, Sufrir.
Eso es todo y esta rola se la dedico a mi
queridisima amiga Priscila a la que quiero mucho...




[Duele el amor chords][Duele el amor cifra]
© LaCuerda.net · aviso legal · privacidad · es · en · pt · contacto