Acordes de Guitarra » A »Aleks Syntek » Mis impulsos sobre tí (Tab)

Mis impulsos sobre tí
Aleks Syntek

Letras, Acordes y Tabs para Guitarra, Bajo y Ukulele

  • G# F#       A#m            Fm
          Yo te amo más que a nadie. 
    G#     F#  A#m  Fm
    Ooh Ooh Oouh Ooh
    G#     F#  A#m  Fm
    Ooh Ooh Oouh  Oh
    
    F#                  G#
    Voy tratando de cambiar, 
      A#m             Fm
    mis impulsos sobre ti. 
    F#               G#
    Y no voy a permitir, 
          A#m             Fm                  
    que me traicione el corazón. 
    
      
     F#                 G#           
    Voy tratando de entregar,
      A#m             Fm
    
  • e--6h5---5h6-8------6--5----6-5-------------
    B--4------------6-----3---------5-4---------
    G--3--------------------------------4-3-2-3-
    D--0-----0----------------------------------
    A-------------------------------------------
    E-------------------3-----------------------
    
    Dmaj7                    E
    voy tratando de cambiar
          F#m          C#m
    mis impulsos sobre ti
    D                   E
    y no voy a permitir
                F#m         C#m7
    que me traicione el corazón
    
    Dmaj7                    E
    voy tratando de entregar
          F#m          C#m
    para hacerte más feliz
    
  •    Dmaj7               E                     E/F#       C#m7
    e--2--------0----------0---------------------0---0------4--------4-------
    B--3------3---3--------0---------------------0---0------5------5---------
    G--2----2-------2------1--------1h2-1--------1---1------4----4-----------
    D--0--0-----------0----2------2-------2------2---2------6--6-------------
    A----------------------2----2-----------2---------------4----------------
    E----------------------0--0------------------2---------------------------
    
    [VERSO]
    
    Dmaj7                    E
    voy tratando de entregar
          F#m          C#m
    mis impulsos sobre ti
    D                   E
    y no voy a permitir  
                F#m         C#m7
    que me traicione el corazon
    
    voy tratando de entregar
    
  • Si necesitas una tab en especial escríbeme...
    
    http://www.myspace.com/alejandrolauyola
    
    
    
    
         W                   W                   W
    G||-------------------|-------------------|-------------------|
    D||-------------------|-------------------|-------------------|
    A||-------------------|-------------------|-------------------|
    E||-------------------|-------------------|-------------------|
    
    
      W                   W                   Q    T S. Q    T S. Q
    -------------------|-------------------|---------------------------|
    -------------------|-------------------|---------------------------|
    -------------------|-------------------|---------------------------|
    -------------------|-------------------|---------4---------4-------|
    
    
      Q    T S Q    S. S Q       Q    S E  Q    S. E.  T
    --------------------------|--------------------------|
    --------------------------|--------------------------|
    --------------------------|--------------------------|
    ---------2---------2------|---------1------
  • (version Acustica)
    
    tricordes para teclado de 5 escalas
    
    mano izquierda                Mano derecha
    F.....(F2-A2-C3)              F....(F3-A3-C4)
    D#....(D2#-G2-A2#)            D#...(D3#-G3-A3#)
    G.....(D2-G2-B2)              G....(D3-G3-B2)
    Gm....(G2-A2#-D3)             Gm...(G3-A3#-D4)
    Dm....(D2-F2-A2)              Dm...(D3-F3-A3)
    Cm....(C2-D2#-G2)             Cm...(C3-D3#-G3)
    C#....(C2#-F2-G2#)            C#...(C3#-F3-G3#)
    
    INTRO...   arriba mano derecha, abajo mano izquierda
    
     F    F   D#         D#   Gm   Gm   Dm
    ---------|---------------|---------|-----------------------------
     A4#  A4  A4  A4# C5 G4   A4#  A4   A4#  A4 F4 C4 A3# A3 G3 F3 
    
    
    F
     oh oh 
           D#             Gm     Dm
     oh oh.... oh oh oh oh  oh oh
    
    
    D#                      F
    voy tratando de cambiar
          Gm            Dm
    mis impulsos sobre ti
    D#                  F
    y no voy a permitir
                Gm           Dm
    que me traicione el corazon
    
    
    D#                       F
    voy tratando 
  • +
    ¡Colabora con nosotros!
    Envíanos tu versión de esta canción

Letra de Mis impulsos sobre tí
Yo te amo más que a nadie.
Ooh Ooh Oouh Ooh
Ooh Ooh Oouh Oh
Voy tratando de cambiar,
mis impulsos sobre ti.
Y no voy a permitir,
que me traicione el corazón.

Voy tratando de entregar,
para hacerte más feliz.
No podría continuar,
si no te tuviera aqui.

Y alejarme,
significa un suicidio.
Yo te amo más que a nadie,
y sin ti jamás viviré. OOH
Y alejarme,
significa un suicidio.
Yo te amo más que a nadie,
y sin ti jamás viviré.
Todo cambia de color,
cuando estás cerca de mi,
porque llenas mi interior,
y me arrancas el amor.
No quisiera ni pensar,
lo que me podría pasar,
si intentarás terminar.
Para mi no hay nadie más...
Y alejarme,
significa un suicidio.
Yo te amo más que a nadie,
y sin ti jamás viviré. OOH
Y alejarme,
significa un suicidio.
Yo te amo más que a nadie,
y sin ti jamás viviré.
Ooh OoH Ooh ooh
Ooh OoH Ooh ooh
Voy tratando de cambiar,
mis impulsos sobre ti
Voy tratando de cambiar,
mis impulsos sobre ti




[Mis impulsos sobre tí chords][Mis impulsos sobre tí cifra]
© LaCuerda.net · aviso legal · privacidad · es · en · pt · contacto