Acordes de Guitarra » A »Aleks Syntek » Loca (Tab)

Loca
Aleks Syntek

Letras, Acordes y Tabs para Guitarra, Bajo y Ukulele

  • Intro: Fm Bbm C# C x 2
    
    Fm
    Soy un caso singular
    Bbm
    Que debiera analizar
    C#
    No se que me dieron
    Ni lo que me hicieron
    C
    Pero ya no soy normal
    
    
    Fm
    El destino se lucio,
    Bbm
    Y una broma me gasto,
    C#
    Esta no es mi casa, ni esta mi señora
     C
    
  •   Fm        Aþ   Bþm     C#        C
    I-1-1---1-1-4-4--6-6--6--9--9--9---8---I
    I-1-1---1-1-5-5--6-6--6--10-10-10--9---I
    I-3-3---3-3-6-6--8-8--8--11-11-11--10--I
    I-3-3---3-3-6-6--8-8--8--11-11-11--10--I
    I-1-1---1-1-4-4--6-6--6--9--9--9---8---I
    
    Esto es lo que se repite en toda la canción, hasta la variación de
    "no hago otra cosa más que estar bailando"
    
    
    Soy un caso singular
    Que debiera analizar,
    No se que me dieron,
    Ni lo que me hicieron
    Pero ya no soy normal,
    
    El destino se lucio
    Y una broma me gasto
    Esta no es mi casa, ni esta mi señora
    
  • solo:
    
    h = hammer-on                   afinacion estandar
    p = pull-off
    b = full bend
    <> = harmonico (F)
    vvv = vibrato
    
    |--------------------------------------|---------13----13h16h18p
    |--vv-vv-------------------------------|--vv-vv-----16-----------
    |--8b-10b-10-8----8--------------------|--8b-10b-----------------
    |--------------10---10-8----8-10-------|-------------------------
    |------------------------11------8-<8>-|-------------------------
    |--------------------------------------|-------------------------
    
    16h18p16p13h16h18p16h18p16p13----vvv---|
    ------------------------------16-16b---|
    ---------------------------------------|
    ---------------------------------------|
    ---------------------------------------|
    ---------------------------------------|
    
    NOTA:
    1.- los vibratos (puestos arriba de cada nota) son despues de los
    bendings y son muy leves
    2.- el harmonico si lo tocan en una guitarra de 3 pastillas
    (como la mia)lo pueden encontar donde esta la segunda pastilla
    3.- la
  • Si necesitas una tab en especial escríbeme...
    
    http://www.myspace.com/alejandrolauyola
    
    
    
    
                 Q.     E  Q.     E     Q.     E  E  S  S  E   E
    G||-------|----------------------|----------------------------|
    D||-------|----------------------|---------------------3h-----|
    A||-------|--6------6--5------5--|---------------1h-3p-----1--|
    E||-------|----------------------|--3------3--1---------------|
    
    
      Q.     E  Q.     E     Q.     E  E  S  S  E   E
    ----------------------|----------------------------|-------|-------|
    ----------------------|---------------------3h-----|-------|-------|
    --6------6--5------5--|---------------1h-3p-----1--|-------|-------|
    ----------------------|--3------3--1---------------|-------|-------|
    
    
                      Q.     E  Q.     S  S    Q.     E  Q.     E
    -------|-------|------------------------|------------7------7--|
    -------|-------|--8------8--7------7h-8-|--5------5------------|
    -------|-------|------------------------|----------------------|
    ----
  • +
    ¡Colabora con nosotros!
    Envíanos tu versión de esta canción

Letra de Loca
Soy un caso singular
Que debiera analizar
No se que me dieron
Ni lo que me hicieron
Pero ya no soy normal
El destino se lucio,
Y una broma me gasto,
Esta no es mi casa, ni esta mi señora
Y este que ves no soy yo,
Loca, loca te vi,
Me encanta cuando estas loca,
Acercate a mi,
Y besame aqui en la boca,
No seas asi,
Me encanta cuando provocas,
Loca te vi,
Y besame aqui en la…
- - - - - - - - - - - -
Todo es una confusion
Y buscamos salvacion
Esa no es mi historia
Ni esta mi memoria
Y no fui yo quien te mato
Como hacerte comprender
No me lo vas a creer
Esta no es mi cama
Esta no es mi gama
Y ese que ves no soy yo
- - -
- - -
No hago otra cosa mas
que estar bailando, bailando,
Con tu carita me la vivo soñando
Pensando
Y si tu quieres vivire peleando, peleando
Voy a sacarte el instinto animal
Repite todo
Hermosa canción de mi amigo Aleks Syntek
Dedicada a mi amada esposa Madeline.




[Loca chords][Loca cifra]
© LaCuerda.net · aviso legal · privacidad · es · en · pt · contacto