Acordes de Guitarra » A »Alejandro Fernandez » Yo nací para amarte (Tab)

Yo nací para amarte
Alejandro Fernandez

  • Letra y Acordes
       Gm                        Cm                          
    Engáñame, olvídame, qué le importa al corazón
            F7                   A#          D7             
    si mi amor está firmado para tí sin condición.
        Gm                       Cm                          
    Castígame y miénteme, te confieso, me da igual
          D#           A7          Cm            D7   G7           
    hace tiempo ha decidido mi corazón a quien amar.
    
          Cm          F7          A#         D#           
    No importan tus amores, no importa tu pasado
           Cm                   A7                 
    tus pequeños errores ya los he perdonado
          D#         D7         
    mucho antes de pecar.
    
              G                
    Y no hay nada que hacer
         Em                Am                    
    yo nací para amarte y amarte sin final
    
  • Letra y Acordes
      Am                                 Dm
    engañame, olvidame que le importa al corazon 
             G7                          C            E7
    si mi amor esta firmado para ti sin condicion
       Am                                 Dm            
    castigame y mienteme te confieso me da igual
             G7                           Dm               E7       A7
    hace tiempo he decido mi corazon a quien amar
            Dm             G7           C             F
    no importan tus amores no importa tu pasado
             Dm                        B7
    tus pequeños errores ya los he perdonado
             F              E7
    mucho antes de pecar
    
                  A                        F#m
    Y no hay nada que hacer yo naci para amarte
          Bm                        E7
    y amarte sin final algun dia lo se
                                            A
    
  • Tablatura
    E|--------------------|-------3--6--5--6--3--|
    B|-----3--1--1/3------|-----3----------------|
    G|---3----2--2/3--3---|---3------------------|
    D|-0--------------0---|-0--------------------|
    A|--------------------|----------------------|
    E|--------------------|----------------------|
    
    E|----3---------3------------------|
    B|-------6-4h6----4----6--4--3h4p3-|
    G|---------------------------------|
    D|--5----------------5-------------|
    A|---------------------------------|
    E|---------------------------------|
    
    E|---------------------------------------------------|
    B|-3p2-3-4p3-2h3-4p3-2/3/11----11-11----8-11-10-11-8-|
    G|---------------------------------------------------|
    D|--------------------------12-----------------------|
    A|---------------------------------------------------|
    E|---------------------------------------------------|
    
  • +
    ¡Colabora con nosotros!
    Envíanos tu versión de esta canción
  • Tutorial
    Cómo tocar Yo nací para amarte de ALEJANDRO FERNANDEZ
    10:24

Letra de Yo nací para amarte
Engáñame, olvídame, qué le importa al corazón
si mi amor está firmado para tí sin condición.
Castígame y miénteme, te confieso, me da igual
hace tiempo ha decidido mi corazón a quien amar.
No importan tus amores, no importa tu pasado
tus pequeños errores ya los he perdonado
mucho antes de pecar.
Y no hay nada que hacer
yo nací para amarte y amarte sin final
algún día lo sé, el caudal desbordado
de tus aguas llega al mar.
Nada va a detener el impulso de amar
que me dicta el corazón
yo nací para amarte
yo nací para amarte
más allá de la razón.
Despúes, al fin aprenderás
a aceptar mi corazón, si el amores verdadero
no se rinde ante el dolor.
Te esperaré, no importa cúanto me hieras

sin piedad
el destino está marcado, serás mía y nada más.
Transcrita por Mariano Rojas, Costa Rica
(guagon@sol.racsa.co.cr)



© LaCuerda.net · aviso legal · privacidad · contacto