Acordes de Guitarra » A »Alejandro Fernandez » Para vivir (Tab)

Para vivir
Alejandro Fernandez

Letras, Acordes y Tabs para Guitarra, Bajo y Ukulele

  • DO
    Que difícil es
                     FA
    Refugiarse del dolor
          SOL                       Fa/Sol/Mi
    Cuando se muere cada noche de
    DO
    desamor
    LAm
    que difícil es
                    RE
    Dibujar ausencias  de ti
    FA                                                 SOL
    Saliendo con las sombras de ese tiempo feliz
    
    
    
    DO
    Que difícil es
                     FA
    
  • Intro      D#   Bb/C#   Cm    D#/Bb  F    G#   G
    
    
                C
    Que difícil es,
                 F
    refugiarse del dolor,
          G          /F        C
    cuando se muere cada noche de desamor,
    G/B        Am
    que difícil es,
               D/F#
    dibujar ausencias de ti,
         Dm                         Fm           G
    soñando con las sombras de ese tiempo feliz.
    
                 C
    Que difícil es,
                F
    escapar a mi soledad
    
  • Intro: D# - Bb - Cm - Gm - G# - G
    
    
    e|------6----------------------6--------6/8-6/------
    B|--------9-8--------------------9-8-----------------
    G|----8-------8--------------8--------8--------------
    D|--8-----------8/10-8.--6/8-------------------------
    A|---------------------------------------------------
    E|---------------------------------------------------
    
    e|---------------------------------------------------|
    B|---------------------------------------------------|
    G|----8-9----10/12-10-10.../8---------8-9----12...---|
    D|-10-----10------------------10.--10-----10---------|
    A|---------------------------------------------------|
    E|---------------------------------------------------|
    
        C
     Que difícil es
                  F
    
  •          D#        Bb/C#         Cm          D#/Bb
    e------6------------------------6--------6/8-6------
    B--------9-8----------------------9-8---------------
    G----8-------8----------------8--------8------------
    D--8-----------8/10-8----6/8------------------------
    A---------------------------------------------------
    E---------------------------------------------------
    
                   F          G#              G
    e---------------------------------------------|
    B-----------------13--------------------------|
    G----7-8----10/12---10--8-8------7-8-----12---|
    D-10-----10-------------------10------10------|
    A---------------------------------------------|
    E---------------------------------------------|
    
    
    
    
    FINAL  Riff 3
    
  • +
    ¡Colabora con nosotros!
    Envíanos tu versión de esta canción

Letra de Para vivir
Que difícil es
Refugiarse del dolor
Cuando se muere cada noche de
desamor
que difícil es
Dibujar ausencias de ti
Saliendo con las sombras de ese tiempo feliz
Que difícil es
Escapar a mi soledad
Ya a tantas ilusiones que no volverán
Al verte tan lejana y fría
Se muere el alma mía
Para olvidar me falta tiempo
Para llorar me sobra vida
Y no habrá dolor mas grande
Que no volverte a ver
Para esperar me falta fuerza
Para intentar me sobra fe
Y se escapa de mis manos
La mujer que tanto ame
Para volver me sobran ganas
Para aceptar me falta el alma
Y se escapa entre las sombras
Quien me diera su luz
Me queda tanto para darte
Mi corazón mi juventud
Pero a pesar de lo que tengo
Para vivir me faltas tu
Que difícil es
Aceptar que ya no estarás
Y que duele en el desierto de mi soledad
Al verte tan lejana y fría
Se muere el alma mía
Para olvidar me falta tiempo?




[Para vivir chords][Para vivir cifra]
© LaCuerda.net · aviso legal · privacidad · es · en · pt · contacto