Acordes de Guitarra » A »Airbag » Cae el sol (Tab)

Cae el sol
Airbag

Letras, Acordes y Tabs para Guitarra, Bajo y Ukulele

  • Intro: C#m - A -E X4
    
    C#m    A          E
    Cae el sol en tu balcon
    C#m    A          E
    y el ritual se terminio
    B                        C#m
    la verdad es que no ha sido facil
    B                        C#m
    la verdad es que no ha sido facil
             A
    para los dos
    B
    sigo aqui esperando por ti
    
    Estribillo
    C#m                 A
    Yo quiero ir algun lugar
                          E
    en donde pueda despertar,
    
  • Intro: Dm A# F C x2
    
    
    Dm        A#         F    C
    Cae el Sol en tu balcón
    Dm         A#        F
    Y el ritual se terminó
    C                            Dm
    La verdad es que no ha sido fácil
    C                            Dm   F       A#
    La verdad es que no ha sido fácil para los dos
    C                       Dm
    Sigo aquí esperando por ti.
    
    Dm                      A#                       F
    Yo quiero ir a algún lugar en donde pueda despertar
                         F            C
    Yo quiero verte sonreír y que no tengas que mentir
    Dm                         A#                    F
    No ves que estoy, estoy aquí dejando toda mi verdad
    
  • Intro: G#m E B B (x2)
    
    G#m     E     B     B
    Cae el Sol en tu balcón
     G#m     E     B     B
    Y el ritual se terminó
      F#       F#      G#m       G#m
    La verdad es que no ha sido fácil
      F#       F#      G#m       G#m            E
    La verdad es que no ha sido fácil para los dos
      F#            F#
    Sigo aquí esperando por ti.
    
    ESTRIBILLO
         G#m                   E
    Yo quiero ir a algún lugar en donde pueda despertar
          B                    B
    YO QUIERO VERTE sonreír y que no tengas que mentir
         G#m                   E
    Nos ves que estoy, estoy ACÁ dejando toda mi verdad
    
  • e|-12---12-12---11---9--9---9-9---9--------------------
    B|----9-------9----9------9-----9---10/9-9-------9-----
    G|-------------------------------------------9-----9---
    D|-----------------------------------------9---9-----9-
    A|-----------------------------------------------------
    E|-----------------------------------------------------
    
    
    ------------------------------|
    -------9----------------------|
    -----9---9h11-11p9-11p9-------|
    -5/9--------------------11~---|
    ------------------------------|
    ------------------------------|
    
    Intro: Riff x2
    
     C#m     A     E     E
    Cae el Sol en tu balcón
     C#m     A     E     E
    
  • Observé que la única tab que había no tenía una transcripción del solo
    y me gustaría agregarla.
    No es exacta pero se acerca bastante.
    Cualquier cosa que se toque dentro de la escala de c#m (o E mayor) suena bien
    porque esa es la tonalidad de la canción.
    
    
    e|--11b12~---11~---9~--------------------------------------------------------
    B|-----------------------9b10---9~------------------------------12~----------
    G|---------------------------------------------------9----11/13------13p11-9~
    D|-------------------------------------------9~---11---11--------------------
    A|--------------------------------------9/11---------------------------------
    E|---------------------------------------------------------------------------
    
    e|---------------------------------------------------------------------------
    B|-----------------------------------9-12----------------------9-12----------
    G|--------------------13~------11b13
  • +
    ¡Colabora con nosotros!
    Envíanos tu versión de esta canción

Letra de Cae el sol
Cae el sol en tu balcon
y el ritual se terminio
la verdad es que no ha sido facil
la verdad es que no ha sido facil
para los dos
sigo aqui esperando por ti
Estribillo
Yo quiero ir algun lugar
en donde pueda despertar,
yo qiero verte sonrreir
y q no tengas q mentir,
No ves q estoy, estoy aqui
dejando toda mi verdad,
no queda nadie en la ciudad
pero por vos me quedo aca,
esperando por ti
Y nose que fue de mas
yo nose que estubo mal
y la luz me sego en tu camino
descubri, entendi el infinito
entre los dos
sigo aqui esperando por ti
Estribillo.




[Cae el sol chords][Cae el sol cifra]
© LaCuerda.net · aviso legal · privacidad · es · en · pt · contacto