Acordes de Guitarra » A »Airbag » Amor de verano (Tab)

Amor de verano
Airbag

Letras, Acordes y Tabs para Guitarra, Bajo y Ukulele

  • D
    Todo empezó una noche de calor
    Bm
    se enamoraron con algún licor
    G
    y desde entonces no pudo parar
    A
    sabía que eso no tenía final.
    
    D
    Y de repente todo se derrumbó
    Bm
    Billy buscaba solo un poco de acción
    G
    el no la amaba ella lo hacia por él
    A
    ya no quiero tenerte lo tienes que entender.
    
    
    ESTRIBILLO:
    
  • D
    Todo empezó una noche de calor
    Bm
    se enamoraron con algún licor
    G
    y desde entonces no pudo parar
    A
    sabía que eso no tenía final.
    
    D
    Y de repente todo se derrumbó
    Bm
    Billy buscaba solo un poco de acción
    G
    el no la amaba ella lo hacia por él
    A
    ya no quiero tenerte lo tienes que entender.
    
    
    Coro:
    
  • D#
    Todo empezó una noche de calor
    Cm
    se enamoraron con algún licor
    G#
    y desde entonces no pudo parar
    A#
    sabía que eso no tenía final.
    
    D#
    Y de repente todo se derrumbó
    Cm
    Billy buscaba solo un poco de acción
    G#
    el no la amaba ella lo hacia por él
    A#
    ya no quiero tenerte lo tienes que entender.
    
    
    ESTRIBILLO:
    
  • E------------------------------
    B---------7-----7-----7--------
    G-------9---9-----9-----9------   (X3)
    D-----9-------9-----9-----9----
    A---7--------------------------
    E------------------------------          SI TOKAN CON ELECTRIKA AGANLO ASI
                                              (PERO SI TOKAN CON ACUSTIKA
    E------------------------------      /      TOKEN MEDIO TONO MAS ABAJO)
    B----------6-----6-----6-------    /
    G--------7---7-----7-----7-----  /
    D------7-------7-----7-----7---/
    A----5-------------------------
    E------------------------------
    
    E------------------------------
    B---------0-----0-----0--------
    G-------2---2-----2-----2------
    D-----1-------1-----1-----1----
    A---0--------------------------
    E------------------------------
    
  • E|----2--2--2---|
    B|---3-3--3--3--|
    G|--2---2--2--2-|x2
    D|--------------|
    A|-0------------|
    E|--------------|
    
    E|-2---2--2--2---|-2---2--2--2---|-3---3--3--3---|-0---0--0--0---|
    B|-3--3-3--3--3--|-3--3-3--3--3--|-3--3-3--3--3--|-2--2-2--2--2--|
    G|-2-2---2--2--2-|-4-4---4--4--4-|-4-4---4--4--4-|-2-2---2--2--2-|
    D|-0-------------|-4-------------|-5-------------|-2-------------|
    A|-0-------------|-2-------------|-5-------------|-0-------------|
    E|---------------|---------------|-3-------------|---------------|
    
    D
    Todo empezó una noche de calor
    Bm
    se enamoraron con algún licor
    G
    y desde entonces no pudo parar
    
  • Transcripción por: Juan Pablo Hernández
    e-mail: jp_hdzarenal@hotmail.com
    
    Saludos a toda la raza de Torreón. Iba a tocar esta canción con mi banda y
    no encontré una buena versión de tab de bajo, asi que me tomé la libertad
    de transcribirla yo mismo. Tienen que escuchar muy detenidamente la
    canción para sacar los pequeños detalles. Votenele.
    
    
    Afinación: Normal
    
    Verso 1
    G|-----------------------------------------------------------------------|
    D|-----------------------------------------------------------------------|
    A|--6-5-3--------------------------66-66-66-6-5-33-33-33-3---------------|
    E|---------4-6/2-6/2-6-6/18-1818/6-------------------------6-44-44-44-44-|
        ‘todo empezó...’              ‘y de repente...’
    
    G|-----------------------------------------------------------------------|
    D|-----------------------------------------------------------------------|
    A|-----------------------------------------------------------------------|
    E|--6/2-6/2-6-6/18-1818/6----------
  • No se muy bien como poner los tiempos pero
    las notas son correctas.
    
    Empiezas en el min 0.07 tocando muy suave
    
    G|------------------------|
    D|-1----------------------|
    A|----3-------------------|
    E|-------4--6-6-6/17--6-6-|
    
    minuto 0.23
    
    ---------------------------------------|
    ---------------------------------------|
    -6-6-6-6-3-3-3-3-----------------------|
    -----------------4-4-4-4-6-6-6-6/17-17-|
    
    Minuto 0.37
                    2x
    ----------------||
    ----------------||
    -6-6-3-3--------||
    ----------4--6--||
    
    Minuto 0.51
    Va con la guitarra
    
    -------------------|
    -------------------|
    -3-3-3--3-3-3--5-6-|
    ----6--4---6-------|
    
    Min 0.56
    
    --------------------------------|
    --------------------------------|
    -6-6-6-6-3-3-3-3----------------|
    ----------------4-4-4-4-6-6-6-6-|
    
    Min 1.10
    
    -----------------------------------------------|si no
    -----------------------------------------------|les gusta
    -6-6-6-6-3-3-3-3-------------------------------|aki
    ----------------4-4-4-4-6-6/17-17-17/6-6/17-17-|imp
  • +
    ¡Colabora con nosotros!
    Envíanos tu versión de esta canción

Letra de Amor de verano
Todo empezó una noche de calor
se enamoraron con algún licor
y desde entonces no pudo parar
sabía que eso no tenía final.
Y de repente todo se derrumbó
Billy buscaba solo un poco de acción
el no la amaba ella lo hacia por él
ya no quiero tenerte lo tienes que entender.
ESTRIBILLO:
Si solo eso fue (uuuuuuu)
un amor de verano
Si solo eso fue (uuuuuuu)
un amor en vano.
2do VERSO IGUAL AL 1ro
Ya no me sigas no lo quiero intentar
ya tus palabras no me sirven más
mi nombre es Billy y yo no quiero saber
de tus romances lo tenés que entender.
Y de repente todo se derrumbó
Billy buscaba solo un poco de acción
el no la amaba ella lo hacia por él
ya no te quiero lo tenés que entender.
ESTRIBILLO:
Si solo eso fue (uuuuuuu)
un amor de verano
Si solo eso fue (uuuuuuu)
un amor en vano.
(antes del solo) "nena lo tienes que entender"
Lo sabes bien esto se terminó
no queda nada nada entre tu y yo
no tengo nada nada nada para entregar
ESTRIBILLO:
Si solo eso fue (uuuuuuu)
un amor de verano
Si solo eso fue (uuuuuuu)
un amor en vano.
Repite el estribillo subiendo un tono.
Si solo eso fue (uuuuuuu)
un amor de verano
Si solo eso fue (uuuuuuu)
un amor en vano.
Gracias a Haldo Spontón que colaboró conmigo en la transcripción.
Nos pareció bien que tengan el tema en el tono original y puedan
tocarlo igual que este buen grupo AirBag...saludos a todos los
fanáticos del rock y no se olviden........Km 19




[Amor de verano chords][Amor de verano cifra]
© LaCuerda.net · aviso legal · privacidad · es · en · pt · contacto