Acordes de Guitarra » A »Abuelos de la Nada » Mil Horas (Tab)

Mil Horas
Abuelos de la Nada

Letras, Acordes y Tabs para Guitarra, Bajo y Ukulele

  •      DOm7    REm7          SOLm7
    Hace frío y estoy lejos de casa
         DOm7               REm7             SOLm7
    Hace tiempo que estoy sentado sobre esta piedra
               RE#maj7
    Yo me pregunto
          REm7              DO7
    Para que sirven las guerras.
    
    DO7
    Tengo un cohete en el pantalón Vos estás tan fría
            SOLm7
    como la nieve a mi alrededor Vos estás tan blanca,
               RE#maj7            REm7   DOm7
    que yo no se      qué hacer.
    
    
    SOLm7
    La otra noche te esperé bajo la lluvia
        DOm7     REm7
    
  •      Gm        Dm          Gm
    Hace frío y estoy lejos de casa
         Gm               Dm             Gm
    Hace tiempo que estoy sentado sobre esta piedra
               D#maj7
    Yo me pregunto
          Dm              C7
    Para que sirven las guerras.
    
                Gm              C   Gm             C
    Tengo un cohete en el pantalón Vos estás tan fría
            Gm
    como la nieve a mi alrededor Vos estás tan blanca,
               D#maj7
    que yo no se que hacer...
    
    Gm
    La otra noche te esperé bajo la lluvia
        Cm        Dm            D#  Dm
    dos horas ml horas como un perro
    
  • Am7          Bm7          Em
    Hace frío y estoy lejos de casa
          Am7                 Bm7           Em
    hace tiempo que estoy sentado sobre esta piedra,
              Am            Bm7          Em
    yo me pregunto, para que sirven las guerras...
               Am          Em        Am             Em
    tengo un cohete en el pantalón, y vos estas tan fría
             Am             Em   Am               Em
    como la nieve a mi alrededor, vos estas tan blanca
              C7
    que ya no se que hacer...
    
    Em                                        Am7
       La otra noche te espere bajo la lluvia dos horas
     Bm7                 C
    mil horas, como un perro
    Em                                         Am7
    y cuando llegaste me miraste y me dijiste "loco"
           Bm7          C
    
  • Gm7
    
    Cm7
    Hace frio
      Dm7            Gm7
    y estoy lejos de casa
    
    
    Cm7
    Hace tiempo
              Dm7
    que estoy sentado
               Gm7
    sobre esta piedra
    
          Cm7
    Yo me pregunto
         Dm7            Gm7
    para que sirven las guerras?
    
    
  • Abuelos de la Nada                            
    MIL HORAS                                     
    
    Durante la primera parte 
    no hay bajo 'Hace frio
    y estoy.....'
    
    
    Tengo un cohete en el pantalon.....
    G\-----------------------------------------------------
    D\------------------------3--------3-------------------
    A\-3-3---1--3-3---1----5----5---5-----6-----6-5-3-1-3--
    E\-----3--------3---3---------3------------------------
    
    
    Uh!La otra noche te espere bajo la luvia.......
    G\----------------------------------
    D\----------------------------------
    A\------1--3-3-3-4-5-5-5-6--6-5-3-1-    (X2)
    E\-3-33-------3-------5-------------
    
    
    En el circo vos ya sos una ........ 
    G\-------------------------------------------------
    D\-------------------------------------------------
    A\--3-3-5-5-----1-5--3-3-5-5------1-5--3-3-5-5-3-3-  
    E\----------3-3---------------3-3------------------
    
    Este ultimo riff hay que engancharlo con la parte de 'Tengo un
    cohete en el pantalon.....'
    
    y
  • ...guerras
    E -----3------3------3-3-----3------|
    a -3--3-1-3--3-1-3--3-1---5-5-5-5-6-|
    d -------------------------3---3----|
    g ----------------------------------|
    
    La otra noche te espere bajo la lluvia dos horas...
    E -3--3-3------3--------5---------
    a -------1-3--3-3-4-5--5-5-6--6-5-
    d --------------------------------
    g --------------------------------
    
    -3--3-3------3--------5---------|
    -------1-3--3-3-4-5--5-5-6--6-5-|
    --------------------------------|
    --------------------------------|
    
    En el circo...
    E ----------3--3--------------3--3-----------------
    a -3--3-5--5----1-5--3--3-5--5----1-5--3--3-5--5-3-
    d -------------------------------------------------
    g -------------------------------------------------
    
    Como un cuete...
    --3------3------3-3----3------|
    -3-1-3--3-1-3--3-1--5-5-5-5-6-|
    ---------------------3---3----|
    ------------------------------|
    
    E -3--3-3------------------3-
    a -------1-3--3-5--5-6--6-5--
    d ---------------------------
    g ---------------------------
    
    -3-------------
  • (En el coro “La otra noche te esperé...” hay una “x”
    significa MUTE, muteas o tapas la cuerda y la tocas)
    Es un pequeño detalle de la canción original, así la
    toca este bajista.
    Esta versión es la exacta de la canción con arreglos y todo
    
    (Durante la primera parte no hay bajo)
    Hace frío y estoy lejos de casa,
    hace tiempo que estoy sentado sobre esta piedra,
    yo me pregunto para qué sirven las
    
    guerras. Tengo un cohete en el pantalón, vos estás tan fría...
    G---------------------------------------------
    D-------------------------------3-------3-----
    A-3-3---1--3-3---1--3-3---1---5---5---5---5-6-
    E-----3--------3--------3---3-------3---------
    
    La otra noche te esperé bajo la lluvia dos horas, mil horas...
    G-----------------------------------
    D-----------------------------------
    A------1--3-3-345-5---5-6-x6-5-3-1--    (X2)
    E-3-33-------3------5---------------
    
    En el circo vos ya sos una estrella, una estrella roja que...
    G---------------------------------------------
    D------
  • En este tema lo que suena es un órgano tipo Hammond
    (no se como se escribe)
    Lo que lleva el tema es el bajo y la guitarra...
    El teclado suma no mas....
    
    Tema:
    
    Base 1:
    |-g5-a#5-d6-|--g5-d6 -|--f5-a5-|
    |-Gm--------|--d#3----|--f3----|
    
    Base 2
    |-g5-a#5-d6-|-----------|--------|-------|--(escalera descendente)
    |-Gm--------|-----------|--Gn#5--|--Dm-|
    
    Base 3
    |-g5-a#5-c6-|
    
    Base 4
    |-g5-a#5-d6-|
    
    Base 5
    |-f#5/g5--a5/a#5—c#6/d6-|
    
    base 6
    |-f5-g5-f5-g5-f5-a#5-|
    
    Base 1
           Hace frío y estoy lejos de casa,
    Base 1
           hace tiempo que estoy sentado sobre esta piedra,
    Base 2
           yo me pregunto para qué sirven las guerras...
    
    
             base 3                   base 3
    Tengo un cohete en el pantalón, y vos estas tan fría
               Base 3                  base 4
    como la nieve a mi alrededor, vos estás tan blanca
             base 4           base 5
    que ya no sé que hacer...
    
    
    La otra noche te espere bajo la lluvia dos horas,
     mil horas, como u
  • +
    ¡Colabora con nosotros!
    Envíanos tu versión de esta canción
  • Tutorial
    HD
    Explicado - Como tocar "Mil horas" de Los abuelos de la nada en el bajo tutorial#66
    8:48

Letra de Mil Horas
Hace frío y estoy lejos de casa
Hace tiempo que estoy sentado sobre esta piedra
Yo me pregunto
Para que sirven las guerras.
Tengo un cohete en el pantalón Vos estás tan fría
como la nieve a mi alrededor Vos estás tan blanca,
que yo no se qué hacer.
La otra noche te esperé bajo la lluvia
dos horas ml horas
como un perro.
Y cuando llegaste me miraste y me dijiste
loco etás mojado,
ya no te quiero.
En el circo vos ya sos una estrella
Una estrella roja que todo se lo imagina
Si te preguntan, vos no me conocías no, no.
Tengo un cohete en mi pantalón
Vos estás tan fría como la nieve a mi alrededor
Vos estás tan blanca, que yo no se que hacer
La otra noche te esperé
bajo la lluvia dos horas
Mil horas como un perro
Y cuando llegaste me miraste
y me dijiste loco
Estás mojado, ya no te quiero.
La otra noche te esperé
bajo la lluvia dos horas
Mil horas como un perro
Y cuando llegaste me miraste
y me dijiste loco
Estás mojado, ya no te quiero.




[Mil Horas chords][Mil Horas cifra]
© LaCuerda.net · aviso legal · privacidad · es · en · pt · contacto