Acordes de Guitarra » A »Abuelos de la Nada » Cosas mías (Tab)

Cosas mías
Abuelos de la Nada

Letras, Acordes y Tabs para Guitarra, Bajo y Ukulele

  •            FA#m
    Fui a las puertas del Edén
           MIm
    Y encontré todo muy bien
              LA
    Fui a la casa del prelado
          SIm
    Lo senti muy preocupado
    
    
    Llegue a la casa de un artista,
    Lo encontre corto de vista
    Pase por lo del doctor
    Nunca vi tanto dolor
    
              LA             SIm
    
    Te quiero asi, me gustas viva
            LA
    Yo no pedi nacer asi
    
  • Intro
    
    G|---------------------------------------------------------------------
    D|---------------------------------------------------------------------
    A|--12 12 11 11 ------12 12 11 11 --------9 9 9 9 ------------9 9 9 9 -
    E|--------------12----------------12----------------7 7 7 7 -----------
    
    G|---------------------------------------------------------------------
    D|----------------------------------------------------------------10 11-
    A|--12 12 11 11 ------12 12 11 11 --------9 9 9 9 ------------9 9 -----
    E|--------------12----------------12----------------7 7 7 7 -----------
    
    G|----------------------------------
    D|----------------------------------
    A|--12 12 11 11 ------12 12 11 11 --
    E|--------------12----------------12
    
    
    G|--------------------------------------------x x x --- x x x
    D|-----------------------------------------------------------
    A|-- 9 x 7 9  ----  12------12 11 --12 12 11 9------ 9-------
    E|------------------------------- 12 ------------------------
    
    G|-------------
  • Hola! bueno, al ver por todo Internet que no había una Tablatura
    clara de bajo para esta canción, salvo la ya publicada que le
    faltan ciertos detalles claves, me senté una tarde y decidí sacar
    bien esta pieza maestra del Cachorro López.
    Espero que les sea útil.
    
    Antes que nada, Aclaración:
    
    S : Slap
    P : Pop
    / : Slide
     : Slide hacia abajo
    X : En este caso, una ota casi muerta
    
    Yo no lo toco con Slap tooodo el tema, salvo en las partes obvias!!,
    pero pueden hacerlo todo con slap! ;)
    
    
    
    *INTRO* con el redoble
    
    G|-------------------|
    D|-7-76-6---7-76-6---|
    A|-------7--------7--|
    E|-------------------|
    
    
    *SIGUE*
    
    G|----------------|---------------|---------------|-------------------|
    D|----------------|---------------|---------------|-7-76-6---7-76-6---|
    A|-9--8--9--9-99--|---------------|-9--8--9--9-99-|-------7--------7--|
    E|----------------|7--5--7--7-77--|---------------|-------------------|
    
             S  PS
    G|----------7------|---------------|-------------------|-----------------
  • +
    ¡Colabora con nosotros!
    Envíanos tu versión de esta canción

Letra de Cosas mías
Fui a las puertas del Edén
Y encontré todo muy bien
Fui a la casa del prelado
Lo senti muy preocupado
Llegue a la casa de un artista,
Lo encontre corto de vista
Pase por lo del doctor
Nunca vi tanto dolor
Te quiero asi, me gustas viva
Yo no pedi nacer asi
Son cosas mias
Te quiero asi ...
Y a las hora de partir
Cuando atravese la esquina
No necesite dar vueltas
Venia la policía
Y me llevaron a un cuartel
Sucio de gris agonia
Yo les vendi mi inocencia
A un precio que no entendían
Te quiero así...
En esta zona no hay mas luz
Y aunque usted no lo distinga
Hay un muerto en el ropero
Y otros dos en la piscina
Esta vida gira asi
Sin cabezas por la vida
Pocos juegan lo que tienen
Y envidian lo que imaginan.
Te quiero así...
Te quiero así...




[Cosas mías chords][Cosas mías cifra]
© LaCuerda.net · aviso legal · privacidad · es · en · pt · contacto