Acordes de Guitarra » Z »Zurdok Movimiento » Maquillaje (Tab)

Maquillaje
Zurdok Movimiento

Letras, Notas, Punteos, Tablaturas y Acordes de Guitarra (Tabs & Chords)

  • Tablatura
    Esta rola no aparece en ningún disco de ZURDOK, solo 
    encontrarás la versión en vivo.
    Saludos desde Hermosillo
    
    Intro
    
    E-|--------------------------------|-
    B-|--------------------------------|-
    G-|--------------------------------|-
    D-|-----5-------5------5-------5-3-|-
    A-|--5------5-3----3-1-----5-3-----|-
    D-|--------------------------------|-
      
    E-|--------------------------------------|-
    B-|--------------------------------------|-
    G-|--------------------------------------|-
    D-|-----5-------5------5-----------------|-
    A-|--5------5-3----3-1-----5-3--5-5-5-5--|-
    D-|--------------------------------------|-
    
    Este es el BAJEO para guitarra
    E-|----------------------------------|-
    B-|----------------------------------|-
    G-|----------------------------------|-
    D-|-0-0--0-3-3--x-3-3---3-5-5---7-8--|-
    A-|-0-0--0-3-3--x-3-3---3-5-5---7-8--|-
    D-|-0-0--0-3-3--x-3-3---3-5-5---7-8--|-
    
    guitarra
    
    E-|--------------------------------|-
    B-|--------------------------8~
  • +
    ¡Colabora con nosotros!
    Envíanos tu versión de esta canción



[ver todas las canciones]


© LaCuerda.net · Aviso Legal · Privacidad
DINAMICO