Acordes de Guitarra » Z »Zurdok Movimiento » Interludio I (Tab)

Interludio I
Zurdok Movimiento

  • Tablatura
    ¿Quien dijo que no se puede?
    
    Pues hasta hace un tiempo no creia que nadie sacara los interludios pero 
    aqui estoy presentandoselos. Ahora veremos el Interludio 1, del 'Maquillaje'
    y del talento de Chetes y Mauricio. Un muy buen instrumental.
    Buena rola, buen disco, excelente grupo.
      ____________
     *Interludio 1*
    
    
     Ok yo les pongo la base; ustedes le agregan el efecto que mas les agrade.
    
    
    e|-----------------------------------------------------|
    b|-----------------------------------10-8--------------|
    g|-7/11~--9--9-7-9-7-9-7-9-7--7/11~-------9/11--7/11~--|
    d|-----------------------------------------------------|
    a|-----------------------------------------------------|
    e|-----------------------------------------------------|
    
    e|-----------------------------------------------------|
    b|-----------------------------------------------------|
    g|-11/9--9/7-9/7---9/7---9/7----------7--------7-------|
    d|---------------5-----5-----5--3/5-----3/5------3/5---|
    a|--------
  • +
    ¡Colabora con nosotros!
    Envíanos tu versión de esta canción





© LaCuerda.net · aviso legal · privacidad · contacto