Acordes de Guitarra » Z »Zurdok Movimiento » De llegar al final (Tab)

De llegar al final
Zurdok Movimiento

  • Tablatura
    Intro
     Em                                                         2x
    e-----------------------------------------------------------------|
    b-----------------------------------------------------------------|
    g-----------------------------------------------------------------|
    d--------2--2----------2-2--2-------2-2--2-------2-2-2-2-2-2-2----|
    a------------------------------------------------3-3-3-3-3-3-3----|
    E---0-0-------0-0-0-0---------0-0-0---------0-0--0-0-0-0-0-0-0----|
    se hacen variaciones con esas pisadas
    
    Verso
        Sal a enseñar la humanidad esta esperando la verdad
        El poder del convencer es un vicio es dualidad
                               es un vicio es dualidad
    e-----------------------------------------------------------------|
    b-----------------------------------------------------------------|
    g-----------------------------------------------------------------|
    d--------2--2----------2-2--2-------2-2--2-------2-2-2-2-2-2-2----|
    a----------------------------
  • Tab p/Bajo
    Aqui les va esta rola tan 'conceptual' de estos tipos de Zurdok
    Tal parace que un güey por hay la pidio..pa' ti..aqui esta!!!
    
    ~~~~~~~~~~~~~~~~~~~~~~~~~~~~~~~~~~~~~~~~~~~~~~~~~
    ~Verso 1~ 
     Sal a enseñar, la humanidad
     Esta esperando la verdad
     El poder de convencer
     Es un vicio es cualidad
     Es un vicio es cualidad
    ~~~~~~~~~~~~~~~~~~~~~~~~~~~~~~~~~~~~~~~~~~~~~~~~~~
    Comienza en~00:37~
    *Riff 1*
    G|--------------------|----------------|     
    D|--------------------|----------------|  
    A|--7p5---7p5-----(x3)|--7p5---7h8-----|\
    E|------7-----7-0-----|------7-----8-8-|  \
      'Es un vicio es cualidad'                 \
                                                  \
                 ó                                 Puedes usar el que mejor
    *Riff 1*                                      / te suene....
    G|--------------------|----------------|    /
    D|--2p0---2p0---------|--2p0---2h3-----|  /
    A|------2-----2---(x3)|------2-----3-3-|/
    E|--------------0-----|----------------|
    
    
  • +
    ¡Colabora con nosotros!
    Envíanos tu versión de esta canción





© LaCuerda.net · aviso legal · privacidad · contacto