Acordes de Guitarra » Z »Zurdok Movimiento » Chambi (Tab)

Chambi
Zurdok Movimiento

Letras, Acordes y Tabs para Guitarra, Bajo y Ukulele

  • Zurdok Movimento
    Antena:
    "Chambi"
    Tabulada por KomKalabaza
    -------------------------
    
    verso
    
    e--------------------------
    b--------------------------
    g--------------------------
    D--------------------------
    A----0-1-0-----------------
    E--0-----------------------
    
    
    coro
    
    e-------------------------------------
    b-------------------------------------
    g-------------------------------------
    D--------------------------4-3--------
    A---4-5-5--4-5-5--4-5-5--4------------
    E-------------------------------------
    
    ----------------
    Correcciones, comentarios, saludos, recetas, etc. 
    Envialas a: mriscariot@hotmail.com
    
    Visita mi pagina de Zurdok en: 
    
    www.geocities.com/SunsetStrip/Mezzanine/7131/
    
    Si alguien sabe el email de zurdok mandenmelo.
  • e-----3/-2---------------3/-2--------------------
    b-----4/-3---------------4/-3--------------------
    g-----3/-2---------------3/-2--------------------
    d------------------------------------------------
    A----------0-1-0-1--------------0--1--0--1-------
    D--4-------0-1-0-1-----4--------0--1--0--1-------
    
    
    
    "Todos saben que tu eres..."
        C
    e-------------/------------------------------------------------------
    b-------------/------------------------------------------------------
    g--5-5-5-5-5-5/------------------------------------------------------
    d--5-5-5-5-5-5/------------------------------------------------------
    A--3-3-3-3-3-3/-3h5-5-3h5-5-3h5-5-3h5-5-3h5-5-3h5-5-3h5-5-3h5-5------
    D-------------/------------------------------------------------5-4-3-
    
    Se repite el fil 1 con el verso 1
    
    
  • +
    ¡Colabora con nosotros!
    Envíanos tu versión de esta canción






[Chambi chords][Chambi cifra]
© LaCuerda.net · aviso legal · privacidad · es · en · pt · contacto