Acordes de Guitarra » Y »Yanaconas » Masticando Broncas (Tab)

Masticando Broncas
Yanaconas

Letras, Acordes y Tabs para Guitarra, Bajo y Ukulele

  • e|----------------------|
    B|----------------------|
    G|----------------------| X4
    D|-5--2-555---2-3-2-5-2-|
    A|-5--2-555---2-3-2-5-2-|
    E|-3--0-333---0-1-0-3-0-|
    
    e|--------------------------------------|
    B|--------------------------------------|
    G|--------------------------------------|
    D|-------------------------------3333-5~|
    A|----------------3333-5555-6666--------|
    E|-3333-5555-6666-----------------------|
    
    
    Base: SOL5   LA#5 / SOL5   SOL5 DO5-LA5-SOL5   MI5-FA5-MI5-SOL5-MI5 X2
    
    
    SOL5       LA#5 / SOL5      DO5-LA5-SOL5     MI5-FA5-MI5-SOL5-MI5
    Masticando broncas y humi lla cio nes
    
  • +
    ¡Colabora con nosotros!
    Envíanos tu versión de esta canción

Letra de Masticando Broncas
Masticando broncas y humi lla cio nes
gente de esta tierra con su mi das
Machetazo y guacha al ca ña ve ral
exceso de alcohol y en el sin char en el sin char
Mezcla de indio y de gringo que no le importo
enfrentarce al capanga que lo conocio.
Sudor y lagrimas ya quedan atras
en el Alto Verde de Tucuman, de Tucuman.
Hoy un grito fuerte que no se callo
yo lo siento adentro de mi corazon.
Debe ser la sangre que dice no
y por eso canto y me planto hoy, y me planto hoy.
Machete de mi abuelo que corta el tallo
de la caña que no le pertenecio.
Y pagar por lo dulce que lo amargo
la zafra fiel testigo de marginacion, de marginacion.
Exodo desde el pago que lo pario
por enfermedades en su changos.
Mala praxis al pobre no lo detuvo
vendio carro y rancho y algunos sueños, y algunos sueños.
Se mudo a otro encierro por dar lo mejor
de sus años mozos por sus hijos
añorando el ingenio que lo defraudo
murio en una fabrica y no fue mejor, y no fue mejor.




[Masticando Broncas chords][Masticando Broncas cifra]
© LaCuerda.net · aviso legal · privacidad · es · en · pt · contacto
DINAMICO