Acordes de Guitarra » Y »Yanaconas » Por la sangre derramada (Tab)

Por la sangre derramada
Yanaconas

Letras, Acordes y Tabs para Guitarra, Bajo y Ukulele

  • |--10h13-13-----------------------------------------------------
    |---------------10-10h13-13-------------------------------------
    |-------------------------------9-9h12-12-----10p9--------------
    |--------------------------------------------------12p10-8-/12--
    |---------------------------------------------------------------
    |---------------------------------------------------------------
    
    --10h13-13---------------------------------------------------------|
    ---------------10-10h13-13------------------------10h13-13-/15-15--|
    -------------------------------9-9h12-12-----9h12------------------| x2
    -------------------------------------------------------------------|
    -------------------------------------------------------------------|
    -------------------------------------------------------------------|
    
       RE     RE DO RE             RE    RE DO RE
    |----------------------------|------------------------------------
    |----------------------------|------------------------------------
    |--/7-----7-5-7--------------|-/7-----7-5-7-----------------------
    |--/7-----7-5-7----10h12-/14-|-/7-----7-5-7----12p10--------------
    |--/5-5-5-5-3-5-12-----------|-/5-5-5-5-3-5-12-------12p10--------
    
  • +
    ¡Colabora con nosotros!
    Envíanos tu versión de esta canción

Letra de Por la sangre derramada
PM ... ...
PM ... ...
PM ... ... ... PM ... ... ...
PM ... ... ... ... ... ...
Por la sangre que fué y será derramada,
PM ... ... ... ... ... ...
por los hijos del sol y por la Pachamama
Por la incomprensión de los incomprendidos,
PM ... ...
por la justa razón que zurca en el olvido
PM ... ... ... ...
Por la trecha distante
que separa nativos,
por algún villalud
que no se haya perdido
Por el nexo cortado
de la sabiduria,
machacando a mauna
machistendo deria
Por todas esas causas
sigo firme en mi lucha
y explicar que mi raza
como ayer no se asusta
y explicar que mi raza
como ayer no se asusta
PM ... ... ... ... ... ...
PM ... ... .
PM ... ... ... ...
PM ... ... ... ... PM ... ...
Por la mala enseñanza
que ha dejado el gringo
habló todo a medias
pero entero al Cristo
Todo lo que aprendimos
fue a __________
a confiar en sus causas
y a no comprender
Hoy en el siglo XX
padecemos sus vicios
droga, alcohol y sobervia
delincuencia en mis hijos
Cuanta sangre será
en vano derramada
para que amerindia
pueda ser liberada
para que amerindia
pueda ser liberada
PM ... ... ... ...
V8
Hermética Horcas Logos Rata Blanca
Freyre, Cba.

Video de Por la sangre derramada
[]




[Por la sangre derramada chords][Por la sangre derramada cifra]
© LaCuerda.net · aviso legal · privacidad · es · en · pt · contacto