Acordes de Guitarra » W »Wizard » Buscándote (Tab)

Buscándote
Wizard

Letras, Acordes y Tabs para Guitarra, Bajo y Ukulele

  • E||-------|--0----3----0----3----|
    B||-------|--0----5----0----5----|
    G||-------|--0----5----0----5----|
    D||-------|--2----5----2----5----|
    A||-------|--2----3----2----3----|
    E||-------|--0---------0---------|
    
    
    --3----3---3-2--------|--3--2--0----0------0--2--|
    --3----3---3-3--------|--3--3--0--3-0------0--3--|
    --0-------------------|-----------2--------------|
    --0-------------------|--------------------------|
    --2-------------------|--------------------------|
    --3-------------------|--------------------------|
    
    --3--------3-2------2-3-5-|--7----7--5-3--2--0----0-2-|
    --3--------3-3------3-3-5-|--7----7--7-3--3--0--3-0-3-|
    --------------------------|---------------------2-----|
    --------------------------|---------------------------|
    --------------------------|---------------------------|
    
  • +
    ¡Colabora con nosotros!
    Envíanos tu versión de esta canción

Letra de Buscándote
GUITARRA: Este arpegio se toca en el intro y en las estrofas I y II
ESTROFA I
Quisiera encontrarte, tal vez poder hablar
Y en cualquier parte poderte mirar
Quisiera atrapar tus ojos y no dejarte escapar
Quisiera tener tus labios y poderte besar
Buscándote, en cualquier lugar
Buscándote, te tengo que encontrar
Buscando
INTERMEDIO DE TECLADO Y GUITARRA:
GUITARRA
“Esto va con distorsión”
“Esto va sin distorsión”
ESTROFA II
Un día estuve solo, me puse a pensar
Como pasa el tiempo y lo que dejé atrás
Mirando tus recuerdos quise encontrar
Ese gran amor que hoy no está.
Buscándote, en cualquier lugar
Buscándote, te tengo que encontrar
Buscando
INTERMEDIO: Se repite la parte de guitarra con distorsión
ESTROFA III
Me pueden explicar
Como encontrar
Este gran amor
Que hoy no esta
Se repite el coro y listo
ACORDES USADOS:

Video de Buscándote
[]




[Buscándote chords][Buscándote cifra]
© LaCuerda.net · aviso legal · privacidad · es · en · pt · contacto