Acordes de Guitarra » W »Wizard » El sueño del ayer (Tab)

El sueño del ayer
Wizard

Letras, Acordes y Tabs para Guitarra, Bajo y Ukulele

  • SOL MIm DO SOL Min DO SOL
    
    
    SOL         MIm       DO            SOL
    En el sueño del ayer, que hoy es realidad
    SOL        MIm
    Eh tratado de encontrar,
    DO                RE
    al ángel que he perdido
    RE       DO    SOL
    Y en el cielo, seguro
     RE            LAm
    está viniendo yo lo se
    RE           MIm
    Tengo miedo que al despertar,
    DO              RE
    ya no estarás conmigo
    
    SOL          MIm       DO            SOL
    Es la triste realidad, que no puedo cambiar
    
  •         SOL         MIm
    -----------------------|--------------------------|
    -----------------------|--------------0-----------|
    -----------------------|-----------0-----0--------|
    --------------------0--|--------2-----------2-----|
    --------------0--2-----|-----2-----------------2--|
    -----------3-----------|--0-----------------------|
    
    
     DO                         SOL
    --------------------------|--------------------------|
    -----------1--------------|-----------3--------------|
    --------0--------0-----0--|--------0--------0-----0--|
    -----2--------2-----------|-----0--------0-----------|
    --3-----------------3-----|--------------------2-----|
    --------------------------|--3-----------------------|
    
    
                  SOL           MIm
    --------------------------|--------------------------|
    
  • +
    ¡Colabora con nosotros!
    Envíanos tu versión de esta canción

Letra de El sueño del ayer
En el sueño del ayer, que hoy es realidad
Eh tratado de encontrar,
al ángel que he perdido
Y en el cielo, seguro
está viniendo yo lo se
Tengo miedo que al despertar,
ya no estarás conmigo
Es la triste realidad, que no puedo cambiar
Quisiera partir de ti, y encontrar mi camino
Alguien me espera, al otro lado de este lugar
se que estas
Voy a encontrar todo el valor,
para aprender a olvidar.
Y Quiero Gritar, gritar te amo
Y quiero Soñar, soñar en ti
Se que este sueño pronto acabará
Y que una vez te irás
Y Quiero Gritar, gritar te amo
Es la triste realidad, que no puedo cambiar
Quisiera partir de aquí y encontrar mi camino
Alguien me espera, al otro lado de este lugar
se que esta
Voy a encontrar todo el valor,
para aprender a olvidar
Y Quiero Gritar, gritar te amo
Y quiero Soñar, soñar en ti
Se que este sueño pronto acabará
Y que una vez te irás
Y Quiero Gritar, gritar te amo
Y Quiero Gritar, gritar te amo
Y quiero Soñar, soñar en ti
Se que este sueño pronto acabará
Y que una vez te irás
Y Quiero Gritar, gritar te amo
Y quiero otra vez, soñar en ti

Video de El sueño del ayer
[]




[El sueño del ayer chords][El sueño del ayer cifra]
© LaCuerda.net · aviso legal · privacidad · es · en · pt · contacto