Acordes de Guitarra » W »Warcry » Trono del metal (Tab)

Trono del metal
Warcry

Letras, Notas, Punteos, Tablaturas y Acordes de Guitarra (Tabs & Chords)

  • Letra y Acordes
    DO                 SOL
    Llegue y vi, tanta trampa y deslealtad
    LAm                 FA         SOL
    Tanto miedo, a que ocupen tu lugar
    DO               SOL
    El creer, que si yo subo tú no
    LAm          FA      SOL
    Solo es, una equivocación
    
    
    MI                   LAm
    Se reirán, quien nos quiere separar
           FA                      SOL
    Les conviene, que nos llevemos mal
    MI                  LAm
    Que pensemos, que todos son un rival
         FA                 SOL               DO
    Pero van conmigo a fracasar no lo conseguirán
    
    
    
  • Tablatura
    Este es mi primer tab así que de seguro tiene errores disculpen
    
    WarCry. Trono del Metal
    
    intro
    |-----------------------------------|
    |-----------------------------------|
    |-5---------------------------------|
    |-3---5-----------------7----3----5-|
    |-3---3-----------------7----3----5-|
    |-----3—---3---1---0----5----1----3-|
    
    |------------------------------------------|
    |------------------------------------------|
    |-------5--------5--------5----------------|
    |-------5--------5--------5----------------|
    |-3--3--3--3--3--3--3--3--3--3--3--3--2--0-|
    |------------------------------------------|
    
    |------------------------------------------|
    |------------------------------------------|
    |------------------------------------------|
    |-------5--------5--------5----------------|
    |-------5--------5--------5----------------|
    |-3--3--3--3--3--3--3--3--3--3--3--3--5--7-|
    
    |----------------------------------------------------------------|
    |------------------------------------
  • Tablatura
    E||-------------------|------------------|-------------------|
    B||-------------------|------------------|-------------------|
    G||--5----------------|------------------|-------------------|
    D||--5----------------|------------------|--5----------------|
    A||--3----------------|------------------|--5----------------|
    E||-------------------|------------------|--3----------------|
    
    
    
    ---------------------|-----------------------|-------------------------|
    ---------------------|---------------13--13--|--13----12----10----8----|
    ---------------------|-----------------------|-------------------------|
    ---------------------|--7--------------------|-------------------------|
    ---------------------|--7--------------------|-------------------------|
    --3------1------0----|--5--------------------|-------------------------|
    
    
    
    --------------------|--------------------|--------------------|
    --10----------------|--12----------------|--13----------------|
    --------------------|---------
  • +
    ¡Colabora con nosotros!
    Envíanos tu versión de esta canción

Letra de Trono del metal
Llegue y vi, tanta trampa y deslealtad
Tanto miedo, a que ocupen tu lugar
El creer, que si yo subo tú no
Se reirán, quien nos quiere separar
Les conviene, que nos llevemos mal
Que pensemos, que todos son un rival
Pero van conmigo a fracasar no lo conseguirán
Alzo mi copa, brindo por ellos
Por todos aquellos que se han quedado atrás
Alzo mi copa, brindo por ellos
Por todos aquellos que queremos conquistar
El más bello premio que es el trono del metal
Alzo mi copa, brindo por ellos
Por todos aquellos que se han quedado atrás
Alzo mi copa, brindo por ellos
Por todos aquellos que queremos conquistar
El más bello premio que es el trono del metal
Alzo mi copa, brindo por ellos
Por todos aquellos que se han quedado atrás
Alzo mi copa, brindo por ellos
Por todos aquellos que queremos conquistar
El más bello premio que es el trono del metal
Y si no llegamos otros lo intentaran
Llegar a ese sueño que es el trono del metal
Brindo por ellos.



© LaCuerda.net · Aviso Legal · Privacidad