Acordes de Guitarra » V »Vox Dei » Sin separarnos más (Tab)

Sin separarnos más
Vox Dei

  • Letra y Acordes
    Intro-Em  D  Em
    
    Em                 D
    Como siento,siento,que te quiero
                  Em
    que te quiero tanto
    Em                  D
    por el verde cesped andaremos
              Em
    andaremos juntos
    C         Em
      Sin separarnos mas
    C        Em
      nunca mas
    C         Em
      sin separarnos mas
    C        Em
      nunca mas
    
    Quiero verte y verte,todo el tiempo
    
  • Tablatura
    Solo:
    ||---------------------------------------------------------
    ||---------------------------------------------------------
    ||---------------------------------------------------------
    ||---------------------------------------------------5h7---
    ||----------5-------------5----------------5--5-7-7------7-
    ||--0h3-5h7---0-3--3-5h7-----0-3-0h3-5h7-7-----------------
    
    ||----------------------------------------
    ||----------------------------------------
    ||---------------------7-9-9-7-9--7-9-9-7-
    ||----5h7p5----5-7-7/9--------------------
    ||--7-------7-----------------------------
    ||----------------------------------------
    
    ||-------------------------------------------------
    ||--------------------10(BU)(BD)10-8-10-8h10p8-----
    ||-9(BU)9(BU)(BD)9-7---------------------------9-9-
    ||-------------------------------------------------
    ||-------------------------------------------------
    ||-------------------------------------------------
    
    Final:
    ||----------------------------------------------------
  • Tablatura
    intro: (Em7 Em7 Dsus9 Em7) x2
    
          Em7           Dsus9
    Como siento, siento, que te quiero,
                    Em7
    y que te quiero tanto,
           Em7          Dsus9                   Em7
    por el verde césped  andaremos, y andaremos juntos.
    C         Em         C       Em
      Sin separarnos más,  nunca más,
    C         Em         C       Em   Em7 Em7 Dsus9 Em7
      sin separarnos más,  nunca más.
    
           Em7          Dsus9
    Quiero verte y verte todo el tiempo,
                        Em7
    todo el tiempo a mi lado,
        Em7           Dsus9           Em7
    y tenerte siempre       entre mis brazos.
    C         Em          C          Em
    
  • +
    ¡Colabora con nosotros!
    Envíanos tu versión de esta canción

Letra de Sin separarnos más
Como siento,siento,que te quiero
que te quiero tanto
por el verde cesped andaremos
andaremos juntos
Sin separarnos mas
nunca mas
sin separarnos mas
nunca mas
Quiero verte y verte,todo el tiempo
todo el tiempo a mi lado
y tenerte siempre
entre mis brazos
Cuantas ganas tengo de encontrarte
cuantas ganas tengo,nena,de besarte
Sin separarnos mas,nunca mas
sin separarnos mas,nunca mas
Es tan simple,simple,tanto
que no lo sabia
cuanto era,nena
lo que amarte,mas yo podria
Cuantas ganas tengo de encontrarte
cuantas ganas tengo,nena,de besarte



© LaCuerda.net · aviso legal · privacidad · contacto