Acordes de Guitarra » V »Vox Dei » Presente (Tab)

Presente
Vox Dei

Letras, Acordes y Tabs para Guitarra, Bajo y Ukulele

  • DO - SOL - LAm - MIm - FA - MIm - FA - SOL
    
    DO        SOL          LAm           MIm
    Todo concluye al fin, nada puede escapar.
    FA        MIm         FA         SOL
    Todo tiene un final, todo termina.
    
    DO         SOL         LAm             MIm
    Tengo que comprender, no es eterna la vida.
    FA         MIm        FA      SOL
    El llanto de la risa, allí termina.
    
    DO     SOL        LAm        MIm
    Creías que el amor no tenía medida.
    FA      MIm           FA          SOL
    O dejas de querer, tal vez a otra mujer
    
    DO                    SOL
    Y olvide aquello, que una vez pensaba
        LAm               SOL
    
  •       C            G
    e|---------------------------------------|
    B|----------13-15--15b17--15p13--15p13---|
    G|----12-14------------------------------|
    D|---------------------------------------|
    A|---------------------------------------|
    E|---------------------------------------|
    
    
          Am                  Em
    e|----15b17--15b17br15-------------------|
    B|------------------------13-------13----|
    G|------------------------------14-------|
    D|---------------------------------------|
    A|---------------------------------------|
    E|---------------------------------------|
    
    
        F              Em
    e|---------------------------------------|
    
  •             1 Tiempo                      2 Tiempo
    e|------------------------------|--15^17-17^15-------------|
    B|----------15---a17--15--15----|--------------13----13----|
    G|-12-14-17-------------17--17--|------------------14------|
    D|------------------------------|--------------------------|
    A|------------------------------|--------------------------|
    E|------------------------------|--------------------------|
    
                 3 Tiempo
    e|-------------------------------------|
    B|-15-13----13----13-15-13----15-13----|
    G|-------14----14----------14-------14-|
    D|-------------------------------------|
    A|-------------------------------------|
    E|-------------------------------------|
    
                           4 Tiempo                          5 Tiempo
    e|----------------------------------------------------|----------
    B|-r15-13----13-r15-13----13----15^17^15-15--13-15-13-|-13//-----
    G|-------14----------14-------------------------------|----------
    D|-----------------------------------------------
  • Arriba de la letra figuran los acordes (mano izquierda) y 
    debajo la melodía (mano derecha). La melodía está en cifrado 
    americano para mayor velocidad en la escritura
    
    A	B	C	D	E	F	G	
    Do	re	mi	fa	sol	la	sol	
    
    Existen varias versiones del tema, para la original de Vox Dei 
    es mejor hacer los acordes con un sonido adecuado con el resto 
    de los instrumentos, para la de Birabent es mejor hacer los 
    acordes intercalados con la melodía al estilo del piano.
    
    
     C       G            Am            Em     
    Todo concluye al fin nada puede escapar
    G-G-E-D-G-G-C-C-C-B-A-A-G
      F          C      F         G
    Todo tiene un final todo termina
    A-A-F-E-G-G, A-A-F-E-D
    C       G            Am            Em     
    Tengo que comprender no es eterna la vida
    G-G-E-D-G-G-C-C-C-B-A-A-G
        F          C      F         G
    El llanto en la risa, allí termina.
    A-A-F-E-G-G, A-A-G-A-B
    
    C       G            Am            Em  
    Creía que el amor no tenía medida
    E-E-C-D-C-B, C-C-C-B-A-A-G  
    F
  • +
    ¡Colabora con nosotros!
    Envíanos tu versión de esta canción

Letra de Presente
Todo concluye al fin, nada puede escapar.
Todo tiene un final, todo termina.
Tengo que comprender, no es eterna la vida.
El llanto de la risa, allí termina.
Creías que el amor no tenía medida.
O dejas de querer, tal vez a otra mujer
Y olvide aquello, que una vez pensaba
que nunca acabaría, nunca acabaría,
pero sin embargo terminó.
Todo me demuestra que al final de cuenta
Termino cada día, empiezo cada día,
Pensando en mañana, fracaso hoy.
No puedo yo entender, si es asi la verdad
De qué vale ganar, si después perder
Inútil es pelear no puedo detenerlo,
Lo que hoy empecé, no será eterno.
Creías que el amor no tenía medida.
O dejas de querer, tal vez a otra mujer
Y olvide aquello, que una vez pensaba
que nunca acabaría, nunca acabaría,
pero sin embargo terminó.
Todo me demuestra que al final de cuenta
Termino cada día, empiezo cada día,
Terminó el mañana, fracaso hoy.
Si cuanta verdad...que hay en vivir
Solamente solamente importa
el momento, en que estás.
Sí, el presente,
el presente y nada más.
Todo me demuestra que al final de cuenta
Termino cada día, empiezo cada día,
Terminó el mañana, fracaso hoy.
Todo me demuestra que al final de cuenta
Termino cada día, empiezo cada día, <- x2 disminuyendo, cantandola
Terminó el mañana, fracaso hoy.
La la laaa ummmm <- y termina...




[Presente chords][Presente cifra]
© LaCuerda.net · aviso legal · privacidad · es · en · pt · contacto