Acordes de Guitarra » V »Viernes Verde » Miel (Tab)

Miel
Viernes Verde

Letras, Acordes y Tabs para Guitarra, Bajo y Ukulele

  • LA-   MI
    Ya en sí,
    LAm
    corta una flor
     MI
    Y fuma un poco más,
    FA                     SOL
    Siente la grama en sus pies
                      MI
    Y da a la noche una gran sonrisa.
    LAm
    Dime que ya no puedes,
    MI
    Después de tanto tiempo
    SOL                         FA
    Calma tus fantasmas, deja de correr,
         MI
    Solo has de beber su miel.
    
    LAm      MI
    
  • e-----------------------------------------------------------------
    B-----------------------------------------------------------------
    G------4-3-3-3h4-3-3-3------------4-3-3-3h4-3-3-------------------
    D------------------------------------------------5----------------
    A---------------------------------------------------6-------------
    E-4-4----------------------4-4------------------------------------
    
    e-----------------------------------------------------------------
    B--------------------7--7-7-7-7-7-5h7p5-----5--5-5-5h7-5-5-5------
    G-----6-6-------6-6----------------------6--------------------8-8-
    D-5-5-5-5-5-5-5-5-5-----------------------------------------------
    A-6-6-6-6-6-6-6-6-6-----------------------------------------------
    E-----------------------------------------------------------------
        pm  pm    pm  pm
    
    e-----------------------------------------------------------------
    B------9--9-9-9-9/11--11-11-11-9----------------------------------
    G-8-8-------------------------------------------------------------
    D-----------------------------------------------------------------
    A-----------------------------------------------------------------
    
  • e-----------------------------------------------------------------
    B-----------------------------------------------------------------
    G--------------------------------------------------3--------------
    D-----9p10-9-9p10-9~9~9~~~-----9p10-9-9p10-9~9~9~~~--5------------
    A-0-0----------------------0-0-------------------------6----------
    E-----------------------------------------------------------------
    
    e---------------------------------------------------------------
    B------------------7--7-7-7-7-7-5h7p5-----5--5-5-5h7-5-5-5------
    G---6-6---6---6-6----------------------6--------------------8-8-
    D-5-5-5-5-5-5-5-5-----------------------------------------------
    A-6-6-6-6-6-6-6-6-----------------------------------------------
    E---------------------------------------------------------------
        pm  pm    pm  pm
    
    e-----------------------------------------------------------------
    B------9--9-9-9-9/11--11-11-11-9----------------------------------
    G-8-8-------------------------------------------------------------
    D-----------------------------------------------------------------
    A-----------------------------------------------------------------
    
  • Este es el solo de bajo que lleva la canción cualquier duda mi correo
    es lcajas60@hotmail.com
    
    AFINACION: G D A E (Standar)
    
    --13------11-----------------------------------13--
    ------13-----11—141414h16—14h16-14--14—14-16-14--16
    ---------------------------------------------------
    ---------------------------------------------------
    
    15-13-16-15-15/18--1818/20-20--2020p18--181818--16--
    ----------------------------------------------18----
    ----------------------------------------------------
    ----------------------------------------------------
    
    16--161615-1515h16p15-13-11-----11--13--------------
    ---------------------------11h13--13----------------
    ----------------------------------------------------
    ----------------------------------------------------
    
    es la idea central igual los toques se me pudieron pasar
    pero uds ya tienen la idea ^^ espero los ayude...
  • +
    ¡Colabora con nosotros!
    Envíanos tu versión de esta canción

Letra de Miel
Ya en sí,
corta una flor
Y fuma un poco más,
Siente la grama en sus pies
Y da a la noche una gran sonrisa.
Dime que ya no puedes,
Después de tanto tiempo
Calma tus fantasmas, deja de correr,
Ya relájate,
Métete al mar
y déjate llevar
Abajo el agua sigue azul,
Recuerda que a ella jamás la vas a cambiar.
Después siguen las mismas notas,
Si le encuentran algún error háganmelo saber
En mi correo herbert7625@hotmail.com
Muy pronto les tendre el punteado del principio,
Como dijo un gran cantante guatemalteco:
Que viva Guatemala!!!!




[Miel chords][Miel cifra]
© LaCuerda.net · aviso legal · privacidad · es · en · pt · contacto
DINAMICO