Acordes de Guitarra » V »Viejas Locas » Intoxicado (Tab)

Intoxicado
Viejas Locas

  • Tablatura
        C5  A5
    1-------------------------
    2---------------8---------
    3----5------4/9-9---------
    4----5--7-----------------
    5----3--7-----------------
    6-------5-----------------
    
        C5  A5
    1-------------------------
    2------------8-8-8-8-7-5--
    3----5-------9-9-9-9-7-5--
    4----5--7-----------------
    5----3--7-----------------
    6-------5-----------------
    
    
    C5  A5       A5         A5
          a nadie importa si yo cuido mi flor
    C5  As        A5      A5
    
  • Tablatura
        C5  A5
    e--------------------------
    b-------------------------8
    g----5--2--2-2-2-2----2/9-9
    d----5--2--2-2-2-2---------
    a----3--0--0-0-0-0---------
    E--------------------------
    
        C5  A5
    e----------------------------------
    b-------------------------8-8------
    g----5--2--2-2-2-2----2/9-9-9--7--5
    d----5--2--2-2-2-2-----------------
    a----3--0--0-0-0-0-----------------
    E----------------------------------
    
    
    C5  A5
          a nadie importa si yo cuido mi flor
    C5  As
    
  • Tablatura
    aca esta el solo de este tema, es facil
    
    
    e|--------10---|-----55-------55--|--------10---|-----------------
    B|-----10------|-----55-------55--|-----10------|-8--8------------
    G|-12b-------X5|-----55-6-5h6-55--|-12b-------X5|-7b---7ba-p5---5-
    D|-------------|------------------|-------------|-------------7---
    A|-------------|------------------|-------------|-----------------
    E|-------------|------------------|-------------|-----------------
    
    
    e|----------------------------------------------------------------
    B|---------------------------------8------------------------------
    G|---------5~---5~--5-7p5-5-7b-------7-7ba-p5---5~-----------5~---
    D|-7-5h6h7----7-------------------------------7-----7-5h6h7-------
    A|----------------------------------------------------------------
    E|----------------------------------------------------------------
    
    
    e|-----------------------------------------------------------------
    B|--------------------------------8---------------888-7-5----------
    G|------------
  • Tab p/Bajo
    G-------------------------
    D-------------------------   repite x 5
    A--3-0--0-0-0-0-0-0-------
    E-------------------------
    
    A nadie importa si yo cuido mi flor A---3-0-0-0-0-0----
    yo la protejo contra el viento, A-3-0-0-0-0-0-0------
    la riego un poco y la llevo al sol A--3-3-0----------
    y con su fruto... 
    
    intoxicado estoy A-5-5-5-5-5-5- y por las calles voy!
    A-0-0-0-0-0-0-0-0-------
     
    intoxicado estoyA-5-5-5-5-5-5-  y por las calles voy!
    A-0-0-0-0-0-0-0-0----3--0-0-0-0-0-0-0 
    
    Un mezcalito que te va a gustar, A-3--0-0-0 
    con su veneno ella juega A-3--0-0-0 
    una flor muerta como las demás A-3-3-0- 
    que con su fruto... 
    
    intoxicado estas A-5-5-5-5-5-5- y por las calles vas!
    A-0-0-0-0-0-0-0-0-------
     
    intoxicado estas A-5-5-5-5-5-5-  y por las calles vas!
    A-0-0-0-0-0-0-0-0
    
    A--3-0-0-0-0-0--    x 4
    
    A--5-5-5-5-5-5-5-5-5-0-0-0-0-0-0-0-0-   x 4
    
    A nadie importa si yo cuido mi flor A---3-0-0-0-0-0----
    yo la protejo contra el viento, A-3-0-0-0-0-0-0------
    la ri
  • +
    ¡Colabora con nosotros!
    Envíanos tu versión de esta canción

Letra de Intoxicado
a nadie importa si yo cuido mi flor
yo la protejo contra el viento
la riego Un poco y la llevo al sol
y con su fruto
EN FORMA DE ROCANROL
(EL TEMA CUANDO SE CANTA ES TODO IGUAL)
un mezcladito que te va a gustar
con su veneno ella juega
una flor muerta como las demas
y con su fruto
EN FORMA DE ROCANROL
pero en si esta bien sacado)
SIMBOLOGIA: b :estirar,… :silencio, h :ligado descendente



© LaCuerda.net · aviso legal · privacidad · contacto