Tablatura para Guitarra de Viejas Locas: Excusas
Conexión · Inscripción
Letras y Acordes
Pantalla Completa
Imprimir
Versión Texto
Añadir Favorito
Otras Versiones

Mostrar Diagramas
Desfile Automático
Manipular Acordes
Formato del Texto


Excusas(TAB)

Viejas Locas

calidad:
vloc0132
AUTOR: Viejas locas
ALBUM: Especial (99)
Enviado por Rodrigo
*BASE *FA#5
1.------------------------
2.------------------------
3.------------------------
4.------------------------
5.-4-4-4-4-4-4---2-4-2----
6.-2-2-2-2-2-2-5------5-2-

*BASE *LA5
1.------------------------
2.------------------------
3.------------------------
4.-2-2-2-2-2-4-4-4-2------
5.-0-0-0-0-0-0-0-0-0------
6.------------------------

Intro:*LA5

*LA5
Por las dudas que seas vos
*FA#5                  *LA5
la primera en bajar el pulgar
*LA5
antes me largo yo,porque esperar a ver
*FA#5             *LA5
cual es tu desicion?

*RE5                    *SI5
Por las dudas como para no quedar
   *LA5
tan perdedor
*RE5              *SI5
con alguna excusa tengo que zafar
*RE5                 *MI5
tan solo una excusa nada mas

*LA5
Que confundido estoy, que algun tiempo me des
*FA#5           *LA5
para pensarlo mejor,
*LA5
o me puedo acusar de no ser yo el merecedor
*FA#5            *LA5
de tan buena mujer,

*RE5                 *SI5                *LA5
Tengo a mano excusas a fin de evitar el papelon
*RE5              *SI5
con alguna excusa, nada mas,
*RE5              *MI5
antes que me bajes vos el pulgar
*FA#5 (BASE x4)
te lo bajo yo.

*MI5                    *SI5       *LA5
Si puedo adivinar tu desicion, porque esperar?
*SI5
con tal que no me duermas hoy
*DO#5
antes que vos voy a escapar
*RE5                     *MI5
tan solo con excusas nada mas.

1ºSOLO: sobre *FA#5  *LA5
1.---------------------------------------------------
2.---------------------------------------------------
3.---------------------------------------------------
4.---------------------------------------------------
5.---------------2-4-2-----------------2-4-2---------
6.-2-2-2-2-2-2-5-------5-2-2-2-2-2-2-5-------5-2-2/5-

-------------------------
-------------------------
-------------------------
-------------------------
--------------5-7-5------
-5-5-5-5-5-5-8-------8-5-

-------------------------------
-------------------------------
-------------------------------
-------------------------------
-------------------------------
-5-5-8-5-5-8-5-5-8-5-5-8-5-5-8-

---------------------------------------------
---------------------------------------------
---------------------------------------------
---------------------------------------------
---------------2-4~2~------------2-4-2-------
-2-2-2-2-2-2-5-------5~~-2~~-2-5-------5-2---

---------------------------------------5-
-----------------------------------5-8---
-----------------------------5-7^^-------
-----------------------7^-7^-------------
-----------------------------------------
-2/5-5-5-5-5-5-8-5-5-8-------------------

*SI5             *LA5
Para no quedar tan perdedor
*SI5                *LA5
antes de evitar un papelon

2ºSOLO: sobre *RE5 *SI5 *LA5
1.------------------------------------------------------
2.------------------------------------------------------
3.-------------------------------------------2-4-4^-4-2-
4.-----------------4-4-4-2-----------2-4-4-4------------4-
5.-5-5-5-4-2-2-2-2---------4-2---2-4--------------------
6.-----------------------------5------------------------

*RE5             *SI5
Con alguna excusa tengo que zafar
*RE5              *MI5
antes que me bajes vos el pulgar
*FA#5
te lo bajo yo.

Final: sobre *FA#5

1.-------------------------
2.-------------------------
3.-------------------------
4.-------------------------
5.---------------2-4-2-----
6.-2-2-2-2-2-2-5-------5-2-

--------------------------------------------------
--------------------------------------2^----------
----------------------------------2-4----4-2------
-------------------------4^-4^-4^-----------------
--------------------------------------------------
-2-2-5-2-2-5-2-2-5-2-2-5--------------------------

-----------2-4-5-5^-5^-5-4-2---------------
-----2-4-5-------------------5-4-2---------
-2-4-------------------------------4-2-----
---------------------------------------4-2-
-------------------------------------------
-------------------------------------------

----------------------------------
----------------------------------
-2-4^-4^-4^-4^-4^-2~--------------
--------------------4~------------
----------------------------------
----------------------------------

----------------------------------------
----------------------------------------
----------------------------------------
-4-2---------------4-2------------------
-----4-2-------4-4-----4-2-------4-4~~~-
---------5-2-2-2-2---------5-2-2-2-2~~~-

BUENO GENTE..ESPERO Q LES SIRVA,

ME COSTO MAS ESCRIBIRLO Q SACARLO JAJA

IGUAL,HAY ALGUNAS PARTES Q NO ESTAN BIEN..(CREO)

CUALKIER DUDA O CORRECCION...O ERROR ME AVISAN

rodry_14_87@hotmail.com

SALUDOS!
Este fichero es trabajo propio de su transcriptor y representa su interpretación personal de la canción. El material contenido en esta página es
para exclusivo uso privado, por lo que se prohibe su reproducción o retransmisión, así como su uso para fines comerciales.

© LaCuerda.net · Aviso Legal · Privacidad