Acordes de Guitarra » V »Viejas Locas » Eva (Tab)

Eva
Viejas Locas

Letras, Acordes y Tabs para Guitarra, Bajo y Ukulele

  • intro: (LA5  RE5  LA5  MI5)*4
    
    LA5 RE5   LA5          MI5  
    eva no te vayas con adan
    LA5 RE5    LA5         MI5
    eva mi serpiente vale mas
    LA5 RE5      LA5          MI5
    eva hay mas manzanas por aqui
    LA5 RE5       LA5         MI5
    eva hoy te voy a hacer feliz
    RE5          LA5
    y del paraiso vamos a escapar
    RE5               LA5
    el flaco de barba nos quiere encerrar
    RE5                 LA5
    conozco la historia lo van a colgar
    SI5           MI5
    sacate la hoja te voy a garchar
                  LA5
    te voy a garchar
    
  • E//------------------------------------------------/
    B//------------------------------------------------/
    G//---------------------2-2-2-2---2-2-2-2----------/
    D//---2-2-2-2--2-2-2-2--0-0-3-4---0-0-3-4--2-2-2-2-/
    A//---0-0-3-4--0-0-3-4---------------------0-0-3-4-/
    E//------------------------------------------------/
    
    
    RIFF                  E5
    eva no te vayas con adan
    
    eva mi serpiente vale mas
    
    eva hay mas manzanas por aqui
    
    eva hoy te voy a hacer feliz
    
    estribillo
    D5            A5      
    en el paraiso vamos a escapar
    
  • E//-----------------------------------------------------------------------------------/
    B//----------------------------------------------------------------------------------/
    G//---------------------2-2-2-----2-2-2------------------------2-2------------------/
    D//---2-2-2----2-2-2----0-0-3h4---0-0-3h4--2-2-2-----2-2-2-----0-0-3h4(deja sonar)-/
    A//---0-0-3h4--0-0-3h4---------------------0-0-3h4---0-0-3h4----------------------/
    E//------------------------------------------------------------------------------/
    
    E//-----------------------------------------------------------------------------------/
    B//----------------------------------------------------------------------------------/
    G//---------------------2-2-2-----2-2-2------------------------2-2------------------/
    D//---2-2-2----2-2-2----0-0-3h4---0-0-3h4--2-2-2-----2-2-2-----0-0-3h4(deja sonar)-/
    A//---0-0-3h4--0-0-3h4---------------------0-0-3h4---0-0-3h4----------------------/
    E//------------------------------------------------------------------------------/
    
    Punteo Inicial:
    e------------------------------------------
    b-------2------2--2/7--7-7\5\3-------------
    g--1/2----1/2------------------------------
    d------------------------------------------
    a------------------------------------------
    
  •   A5               D5            A5             E5
    e|----------------------------------------------------
    B|-----2-----2-----7-7-5-2s3--------2-----2-----9-9---
    G|-1s2---1s2---2s7-----------4--1s2---1s2---2s9-------
    D|----------------------------------------------------
    A|----------------------------------------------------
    E|----------------------------------------------------
    
           A5                  D5                 A5            E5
    e|-------------------------------------------------------------
    B|-------2-----2-----2-----7-7-7-7-5-2s3--------2-----2-----9--
    G|-1-1s2---1s2---1s2---2s7----------------4-1s2---1s2---2s9----
    D|-------------------------------------------------------------
    A|-------------------------------------------------------------
    E|-------------------------------------------------------------
    
    
      Eva           no te vayas con Adán
    e|-----------------------------------------
    B|----6s7----------------------------8s9---
    
  • TOQUEN ESTE TEMA CON RITMO DE BLUES, AHI VA:
    
    G-----------------------------------------------
    D----------------0-0-3-4-0-0-3-4----------------
    A-0-0-3-4-0-0-3-4----------------0-0-3-4-2-2-4-2
    E-----------------------------------------------
    
    ESTO SE USA PARA LA SIGUIENTE PARTE:
    
    eva, no te vayas con adan
    eva, mi serpiente vale mas
    eva, hay mas manzanas por aqui
    eva, hoy te voy a hacer feliz
    
    AHORA CAMBIA Y HACE:
    
    G---------------------------------------
    D--0-0-0-0-0-0-0-0-0-0------------------
    A---------------------0-0-0-0-0-0-0-0-0-
    E---------------------------------------
    
    del paraiso, vamos a escapar
    el flaco de barba, nos quiere cerrar
    conozco la historia, lo van a colgar
    
    Y AHORA HACE ESTO:
    
    G---------------------------------------
    D---------------------------------------
    A-2-2-2-2-2-2-2-2-2-2-2-----------------
    E------------------------0--------------
    
    sacate la hoja            te voy a garchar, te voy g..
    
    ES ESO Y VA DEVUELTA CON LO DEL PRINCI
  • Eva - Viejas Locas
    
    Repite estos dos todo el tiempo en la intro y estrofa
    
    G|-----------------------------------------------------2-4-2---------
    D|-----------------0-0-3-4-0-0-3-4-----------------2-4-------4-2-----
    A|-0-0-3-4-0-0-3-4-----------------0-0-3-4-0-0-3-4----------------4-0
    E|-------------------------------------------------------------------
    
    
    G|-------------------------------------------------------------------
    D|-----------------0-0-3-4-0-0-3-4------------------2-2s4-4s5-5s6-6--
    A|-0-0-3-4-0-0-3-4-----------------0-0-3-4-0-0-3-4------------------0
    E|-------------------------------------------------------------------
    
    Estribillo
    
    G|-----------------------------------------------------------
    D|-------------------7-7---5-7--7---5-7----------------------
    A|-5-5---3-5--5---3------7--------7------5-5---3-5--5---3-5--
    E|-----5--------5----------------------------5--------5------
    
    
    G|--------------------------------------------------------
    D|-7-7---5-7--7---5-7--------------------
  • +
    ¡Colabora con nosotros!
    Envíanos tu versión de esta canción

Letra de Eva
eva no te vayas con adan
eva mi serpiente vale mas
eva hay mas manzanas por aqui
eva hoy te voy a hacer feliz
y del paraiso vamos a escapar
el flaco de barba nos quiere encerrar
conozco la historia lo van a colgar
sacate la hoja te voy a garchar
te voy a garchar
eva.........
y del paraiso.......
y del paraiso




[Eva chords][Eva cifra]
© LaCuerda.net · aviso legal · privacidad · es · en · pt · contacto
DINAMICO