Acordes de Guitarra » V »La vida es un Comic » Himno Hoshible (Tab)

Himno Hoshible
La vida es un Comic

Letras, Acordes y Tabs para Guitarra, Bajo y Ukulele

  • e-|-----0-------0-------0-------0--------0-------0--|-
    B-|-2-------2-------3-------3--------2-------2------|-
    G-|---2---2---2---2---2---2---2---2----2---2---2---2|-
    D-|-------------------------------------------------|-
    A-|-------------------------------------------------|-
    E-|-------------------------------------------------|-
    
    e-|----0--2-2-2-0-----------------------------------|-
    B-|0--------------2-3-2-----------------------------|-
    G-|--2----------------------------------------------|-
    D-|-------------------------------------------------|-
    A-|-------------------------------------------------|-
    E-|-------------------------------------------------|-
    
    
    A                     F#m
    Hola hoshibles como están
                       D
    hoy nos separa el mar
    pero el jueves juntos
    
  • +
    ¡Colabora con nosotros!
    Envíanos tu versión de esta canción

Letra de Himno Hoshible
Hola hoshibles como están
hoy nos separa el mar
pero el jueves juntos
de nuevo a las 20
Kion sigues en europa
yo sigo aquí en la dota
pero el jueves juntos
de nuevo en un hangout
y hay algo mas
estarán otros youtubers
vos también podes estar
y hay algo mas
como en el hagstag
mientras mas lo uses
mas adentro vos estas
y en el Facebook
otra forma de ganar
de participar
mientras tengas mic
mientras tengas cam
y hay algo mas

Video de Himno Hoshible
[]




[Himno Hoshible chords][Himno Hoshible cifra]
© LaCuerda.net · aviso legal · privacidad · es · en · pt · contacto
DINAMICO