Acordes de Guitarra » V »La vida es un Comic » No me importa nada (Tab)

No me importa nada
La vida es un Comic

Letras, Acordes y Tabs para Guitarra, Bajo y Ukulele

  • SI
    nose como hacer tampoco entendia
    F#                                           MI
    si el tiempo nos daria en la vida suficiente valor
    
    no mientas esta claro
                     SI
    se escucha ya la noche
                    F#
    ya no existe el sol
    
    
      SI
    y ya no quiero que te escondas
             F#
    si sabes que la vida es corta
              MI
    no me preocupo en arreglarme
        SI              F#
    vamonos a cualquier parte
    
  • Intro: D - A - G - A
    -|-----5--------|-------5-------|---------------------|
    -|-2/7--7-8-7-5-|-5-8-7---5-3---|-3/8-8-3-3-----------|
    -|--------------|---------------|---------------------|
    -|--------------|---------------|---------------------|
    -|--------------|---------------|---------------------|
    -|--------------|---------------|---------------------|
    
                                   [           x2       ]
    -|----------------|---------------|-----------------------|
    -|-5-5-3-5--5-3-5-|-5-3-5-5/7-5-3-|-7-7-7-5-5-5-3-3---3-5-|
    -|----------------|---------------|-----------------4-----|
    -|----------------|---------------|-----------------------|
    -|----------------|---------------|-----------------------|
    -|----------------|---------------|-----------------------|
    
     [      x2     ]
    -|----------------|----------------------------|-----------------------|
    -|-7-5-3-0-3------|-8-8-7-7-5-5-0-0-3-3-5-3---3|-7-7-7-5-5-5-3-3---3-5-|
    -|----------------|-------------------------4--|-----------------4-----|
    
  • +
    ¡Colabora con nosotros!
    Envíanos tu versión de esta canción

Letra de No me importa nada
nose como hacer tampoco entendia
si el tiempo nos daria en la vida suficiente valor
no mientas esta claro
se escucha ya la noche
ya no existe el sol
y ya no quiero que te escondas
si sabes que la vida es corta
no me preocupo en arreglarme
vamonos a cualquier parte
(Y se repite siempre el mismo Roll)
y pienso otra vez
que seria de mi vida si me as de escuchar
que decia inundado en alcohol
no miento esta claro
se escucha ya la noche
ya no es existe el sol
y ya no quiero que te escondas
si ya sabes que la vida es corta
no me preocupo en arreglarme
vamonos a cualquier parte
no me importa NADA
no me importa NADA
no me importa NADA
no me importa NADA no me importa que wooo ooo

Video de No me importa nada
[]




[No me importa nada chords][No me importa nada cifra]
© LaCuerda.net · aviso legal · privacidad · es · en · pt · contacto